Bunton Emma - What Took You So Long Chords & Tabs

 

What Took You So Long Chords & Tabs

Bunton Emma Chords & Tabs

Version: 3 Type: Chords 0 ratings
1 star 2 stars 3 stars 4 stars 5 stars
comments

What Took You So Long Chords

   
Tabbed by :LOLLY!!!!!!!!!!!!!!! WHO ELSE!!!!!!!!!!!!!!!!!!!!!!!!
NOW SHUT UP AND PLAY THIS TAB. I am diong this from memory, mind you... so bear with me.

TUNING: Jesus Christ: EBGDAE


INTRO:
Intro Riff:

              Am Am7 Am Am7...
E|---------------------------------------------------------|
B|---------------------------------------------------------|
G|---------------------------------------------------------|
D|---------------------------------------------------------|
A|--2h3p2--------3h5p3-----2---3/5---2h3p2-----3-3-2-2-3-2-|
E|--------3-5-----------5------------------3-5-------------|


([Am7] [Am] [G]
[Am7] Yeah yeah [Am] yeah [G])
VERSE 1:
Oh, [Am7]talk to me, [Am]can't you see
[G]I'll help you work things out.
Oh,[Am7] don't wanna be your [Am]enemy
And I [G]don't want to scream and shout.

BRIDGE:
Bridge:( 2x ):


E|-------3------|        ------------|
B|-----1---0h1--|        --0-1-1-0-0-|
G|---2----------|        ------------|
D|-2------------| (X3)   ------------|
A|--------------|        ------------|
E|--------------|        ------------|

Or...

'Cos, baby,[Dm] I believe in [F] honesty
And [Am]then be strong and [G]true.
[Dm]I shouldn't have to [F]say now, baby,
That [Am]I believe in [G]you.

CHORUS:

[N.C]What took you so [Dm]long?
What took you all [Am]night?
What took you for[G]ever to see I'm right?
You know, I treat you so[Dm] good;
I make you feel[Am] fine.
You know, I'll [G]never give it up this time.
Oh, no, no.
[Am7] [Am] [G]

VERSE 2:

Oh, you [Am7]touched my heart right [Am]from the start,
You [G]didn't know what to say.
But, [Am7]honey, I [Am]understand
When you take my [G]hand everything's OK.

BRIDGE 2:
Bridge:( 2x ):


E|-------3------|        ------------|
B|-----1---0h1--|        --0-1-1-0-0-|
G|---2----------|        ------------|
D|-2------------| (X3)   ------------|
A|--------------|        ------------|
E|--------------|        ------------|

Or...
[ Tab from: http://www.guitartabs.cc/tabs/b/bunton_emma/what_took_you_so_long_crd_ver_3.html ]

'Cos, baby,[Dm] I believe re[F]ality,
It's [Am]never far a[G]way.
I've [Dm]had enough, so [F]listen, baby,
[Am]I've got something to say.[G]

CHORUS:
[N.C]What took you so [Dm]long?
What took you all [Am]night?
What took you for[G]ever to see I'm right?
You know, I treat you so[Dm] good;
I make you feel[Am] fine.
You know, I'll [G]never give it up this time.

[N.C]What took you so [Dm]long?(What took you so long?)
What took you all [Am]night?(What took you all night?)
What took you for[G]ever to see I'm right?
You know, I treat you so[Dm] good; (I treat you so good)
I make you feel[Am] fine.(I make you feel fine)
You know, I'll [G]never give it up this time.

Oh, no, no.
[Am7] [Am] [G]

Bridge:( 2x ):


E|-------3------|        ------------|
B|-----1---0h1--|        --0-1-1-0-0-|
G|---2----------|        ------------|
D|-2------------| (X3)   ------------|
A|--------------|        ------------|
E|--------------|        ------------|

Or...

'Cos, baby,[Dm] I believe in [F] honesty
And [Am]then be strong and [G]true.
[Dm]I shouldn't have to [F]say now, baby,
That [Am]I believe in [G]you.


[N.C]What took you so [Dm]long?
What took you all [Am]night?
What took you for[G]ever to see I'm right?
You know, I treat you so[Dm] good;
I make you feel[Am] fine.
You know, I'll [G]never give it up this time.

[N.C]What took you so [Dm]long?(What took you so long?)
What took you all [Am]night?(What took you all night?)
What took you for[G]ever to see I'm right?
You know, I treat you so[Dm] good; (I treat you so good)
I make you feel[Am] fine.(I make you feel fine)
You know, I'll [G]never give it up this time.


[N.C]What took you so [Dm]long?(What took you so long?)
What took you all [Am]night?(What took you all night?)
What took you for[G]ever to see I'm right?
You know, I treat you so[Dm] good; (I treat you so good)
I make you feel[Am] fine.(I make you feel fine)
You know, I'll [G]never give it up this time.

Oh, no, no.
[Am7] [Am] [G]


~*>Lolly
Comments