Bumblefoot - Mxc Theme Most Extreme Elimination Challenge Chords & Tabs

 

Mxc Theme Most Extreme Elimination Challenge Chords & Tabs

Bumblefoot Chords & Tabs

Version: 1 Type: Tab 0 ratings
1 star 2 stars 3 stars 4 stars 5 stars
comments

Mxc Theme Most Extreme Elimination Challenge Tab

   
 MXC (Most Extreme Elimination Challenge) Intro / Theme song
 -----------------------------------------------------------
 as seen on Spike TV - performed by Bumblefoot


 Tab written by Scott Inman, revision 1.2ß
 seinman@statestreet.com

 Ok... L-L-L-L-L-L-L-L-L-L-L-LETS GO!!!


 Key:
 ____

 b = bend
 x = palm mute
 / = slide  
 ~ = vibrato


 Tuning: Standard (E-A-D-G-b-E)


 Riff #1:
 --------
 Play 3x

 E|-----------------|-----------------|-----------------|-----------------|
 B|-----------------|-----------------|-----------------|---6----6----6---|
 G|-----------------|-----------------|-----------------|---5----5----5---|
 D|----------2------|----------3------|-----------4-----|---3----3----3---|
 A|--0-3-0-3--------|--0-3-0-3--------|---0-3-0-3-------|-----------------|
 E|-----------------|-----------------|-----------------|-----------------|
     x x x x  ~~~~~~   x x x x  ~~~~~~    x x x x  ~~~~~~


 Riff #2:
 --------
 Play 2x - play FAST and mute as shown

 E|-----------------|-----------------|-----------------|-----------------|
 B|-----------------|-----------------|-----------------|---6----6----6---|
 G|-5-5-5-5-5-5-5-5-|-5-5-5-5-5-5-5-5-|-7-7-7-7-7-7-7-7-|---5----5----5---|
 D|-5-5-5-5-5-5-5-5-|-5-5-5-5-5-5-5-5-|-7-7-7-7-7-7-7-7-|---3----3----3---|
 A|-3-3-3-3-3-3-3-3-|-3-3-3-3-3-3-3-3-|-5-5-5-5-5-5-5-5-|-----------------|
 E|-----------------|-----------------|-----------------|-----------------|
    x x x x x x x x   x x x x x x x x   x x x x x x x x


 Riff #3:
 --------
 Play FAST and THRASH them this time!  (let ring, no muting)
 If you are playing with guitar alone, skip the last bar of this
 arrangement and go directly into Riff #4.

 E|-----------------|-----------------|-----------------|-----------------|
 B|-----------------|-6-6-6-6-6-6-6-6-|-7-7-7-7-7-7-7-7-|-6-6-6-6-6-6-6-6-|
 G|-5-5-5-5-5-5-5-5-|-5-5-5-5-5-5-5-5-|-6-6-6-6-6-6-6-6-|-5-5-5-5-5-5-5-5-|
 D|-5-5-5-5-5-5-5-5-|-3-3-3-3-3-3-3-3-|-4-4-4-4-4-4-4-4-|-3-3-3-3-3-3-3-3-|
 A|-3-3-3-3-3-3-3-3-|-----------------|-----------------|-----------------|
 E|-----------------|-----------------|-----------------|-----------------|

 E|-----------------|-----------------|-----------------|-----------------|
 B|-----------------|-6-6-6-6-6-6-6-6-|-7-7-7-7-7-7-7-7-|-6-6-6-6-6-6-6-6-|
 G|-5-5-5-5-5-5-5-5-|-5-5-5-5-5-5-5-5-|-6-6-6-6-6-6-6-6-|-5-5-5-5-5-5-5-5-|
 D|-5-5-5-5-5-5-5-5-|-3-3-3-3-3-3-3-3-|-4-4-4-4-4-4-4-4-|-3-3-3-3-3-3-3-3-|
 A|-3-3-3-3-3-3-3-3-|-----------------|-----------------|-----------------|
 E|-----------------|-----------------|-----------------|-----------------|
                                                        ^^^
                                                          skip here if solo

 Riff #4:
 --------
 There are 2 guitars present on this part - the bass does the single notes
 and the guitar just does the power chords and harmonics.  I tabbed this 
 so you can play both with one guitar (that's how I do it anyway).

 Be sure to let the power chords and harmonics ring as long as you can
 before switching back to the single note riff.

 E|-----------------|-----------------|-----------------|-----------------|
 B|-----------------|-----------------|-----------------|-----------------|
 G|--2-0------------|--2-0------------|--2-0------------|-2-0-------------|
 D|------3-0--5-----|------3-0--7-----|------3-0--3-----|-----3-0--5------|
 A|-----------5-----|-----------7-----|-----------3-----|----------5------|
 E|-----------3-----|-----------5-----|-----------1-----|----------3------|
[ Tab from: http://www.guitartabs.cc/tabs/b/bumblefoot/mxc_theme_most_extreme_elimination_challenge_tab.html ]
 E|-----------------|-----------------|-----------------|-----------------|
 B|-----------------|-----------------|-----------------|-----------------|
 G|-5(h)------------|-2-0-------------|-2-0-------------|-2-0-------------|
 D|-----5(h)--5-----|------3-0--7-----|-----3-0---3-----|-----3-0---5/-17-|
 A|-----------5-----|-----------7-----|-----------3-----|-----------5/-17-|
 E|-----------3-----|-----------5-----|-----------1-----|-----------3/-15-|


 Riff #5:
 --------
 Play 2x

 E|-----------------|-----------------|-----------------|-----------------|
 B|-----------5-6---|-6-7--7--6-6-6-6-|-----------5-6---|-6-7--7--6-6-6-6-|
 G|--5--------4-5---|-5-6--6--5-5-5-5-|--5--------4-5---|-5-6--6--5-5-5-5-|
 D|--5--------2-3---|-3-4--4--3-0-3-0-|--5--------2-3---|-3-4--4--3-0-3-0-|
 A|--3--------------|-----------------|--3--------------|-----------------|
 E|-----------------|-----------------|-----------------|-----------------|


 Solo:
 -----

 E|-----------------|-----------------|-----------------|-----------------|
 B|-----------------|-----------------|-----------------|-----------------|
 G|----------17-----|----------17-----|----------17-----|--17b19b17-------|
 D|-------16--------|-------16--------|-------16--------|-----------------|
 A|-15-15-----------|-15-15-----------|-15-15-----------|-----------------|
 E|-----------------|-----------------|-----------------|-----------------|
              ~~~~~~~           ~~~~~~~           ~~~~~~~           ~~~~~~~
 E|-----------------|-----------------|-----------------|-----------------|
 B|-----------------|-----------------|-----------------|-----------------|
 G|----------17-----|----------17-----|----------17-----|--17b19b17-------|
 D|-------16--------|-------16--------|-------16--------|-----------------|
 A|-15-15-----------|-15-15-----------|-15-15-----------|-----------------|
 E|-----------------|-----------------|-----------------|-----------------|
              ~~~~~~~           ~~~~~~~           ~~~~~~~           ~~~~~~~


 Riff after solo:
 ----------------
 Play 4x

 E|-----------------|-----------------|-----------------|-----------------|
 B|---17-17-17-17-17|17-17-17-17-17-17|17-17-17-17-17-17|17-17-17-17-17-17|
 G|12/17-17-17-17-17|17-17-17-17-17-17|17-17-17-17-17-17|17-17-17-17-17-17|
 D|-----------------|-----------------|-----------------|-----------------|
 A|-----------------|-----------------|-----------------|-----------------|
 E|-----------------|-----------------|-----------------|-----------------|

 end on this note and hold:
  
 E|-----------------|-----------------|-----------------|-----------------|
 B|-----------------|-----------------|-----------------|-----------------|
 G|-12--------------|-----------------|-----------------|-----------------|
 D|-----------------|-----------------|-----------------|-----------------|
 A|-----------------|-----------------|-----------------|-----------------|
 E|-----------------|-----------------|-----------------|-----------------|
      ~~~~~~~~~~~~~~~~~~~~~~~~~~~~~~~~~~~~~~~~~~~~~~~~~~



 Sound tip:
 ----------

 To get your guitar to sound like the recording, I recommend
 a ton of distortion with either an overdrive or heavy metal
 pedal. My DOD Death Metal pedal works perfectly for on all
 of my guitars.

 I hope you find this tab useful.  If this tab has helped you,
 please drop me a line and let me know.  It's nice to know the
 work involved in writing this tab is appreciated. I've learned
 that Writing guitar tab is harder and more time consuming than
 it looks...


 Right you are Ken!
 and remember.........DON'T GET ELIMINATED!!!!!!!!!

 Enjoy!
  
 Scott Inman
 seinman@statestreet.com

 last updated: October 12, 2004
Comments