Bullet For My Valentine - Turns To Despair Chords & Tabs

 

Turns To Despair Chords & Tabs

Bullet For My Valentine Chords & Tabs

Version: 1 Type: Tab 0 ratings
1 star 2 stars 3 stars 4 stars 5 stars
comments

Turns To Despair Tab

Band: Bullet for my valentine
Song: turn to despair

Tuning: Drop c

/ = slide
\\\ = pick slide
* = harmonic
pm = palm mute
h = hammer on
p = pull off

intro/verse
both guitars
|----------------------------------------------------------------|
|----------------------------------------------------------------|
|----------------------------------------------------------------|
|----------------------------------------------------------------|
|-0--1-0-1-3-1-0-1-0-1-0-1-3-1-0-1-0-1-0-1-3-1-0-1-0-1-0-1-3/5\5-|
|-0--1-0-1-3-1-0-1-0-1-0-1-3-1-0-1-0-1-0-1-3-1-0-1-0-1-0-1-3/5\5-|

|----------------------------------------------------------------|
|----------------------------------------------------------------|
|----------------------------------------------------------------|
|----------------------------------------------------------------|
|-0--1-0-1-3-1-0-1-0-1-0-1-3-1-0-1-0-1-0-1-3-1-0-1-0-1-0-1-------|
|-0--1-0-1-3-1-0-1-0-1-0-1-3-1-0-1-0-1-0-1-3-1-0-1-0-1-0-1-3//12-|

|----------------------------------------------------------------|
|----------------------------------------------------------------|
|----------------------------------------------------------------|
|----------------------------------------------------------------|
|-0--1-0-1-3-1-0-1-0-1-0-1-3-1-0-1-0-1-0-1-3-1-0-1-0-1-0-1-3/5\5-|
|-0--1-0-1-3-1-0-1-0-1-0-1-3-1-0-1-0-1-0-1-3-1-0-1-0-1-0-1-3/5\5-|

|----------------------------------------------------------------|
|----------------------------------------------------------------|
|----------------------------------------------------------------|
|----------------------------------------------------------------|
|-0--1-0-1-3-1-0-1-0-1-0-1-3-1-0-1-0-1-0-1-3-1-0-1-0-1-0-1-3//8--|
|-0--1-0-1-3-1-0-1-0-1-0-1-3-1-0-1-0-1-0-1-3-1-0-1-0-1-0-1-3//8--|

Chorus
guitar 1
|-------------------------------------------|
|-------------------------------------------|
|-------------------------------------------|
|-8--8--8-8--8--8-8--8-0--0--0-0--0--0-0--0-|
|-8--8--8-8--8--8-8--8-0--0--0-0--0--0-0--0-|
|-8--8--8-8--8--8-8--8-0--0--0-0--0--0-0--0-| x4

guitar 2
|-------------------------------------------|
|-------------------------------------------|
|-------------------------------------------|
|-8--8--8-8--8--8-8--8-0--0--0-0--0--0-0--0-|
|-8--8--8-8--8--8-8--8-0--0--0-0--0--0-0--0-|
|-8--8--8-8--8--8-8--8-0--0--0-0--0--0-0--0-|
then                                              x2
|-----------------------------------------------|
|-----------------------------------------------|
|---------------------------1212-12-12-12/14\12-|
|-8--8--8-8--8--8-8--8-0--0-x-x--x-x-x-x--x--x--|
|-8--8--8-8--8--8-8--8-0--0-1010-10-10-10/12\10-|
|-8--8--8-8--8--8-8--8-0--0---------------------|

first Beatdown

guitar 1
|--------------------------------------|
|--------------------------------------|
|--------------------------------------|
|--------------------------------5---7-|
|-0-00-6p5-00-0-0-6p5-000-0-6p5--3---5-|
|-0-00-----00-0-0-----000-0----00--00--| x1
pm. ..     .. . .     ... .    ..  ..
[ Tab from: http://www.guitartabs.cc/tabs/b/bullet_for_my_valentine/turns_to_despair_tab.html ]
both guitars
|---------------------------------------------|
|---------------------------------------------| you need to
|---------------------------------------------| figure out
|------------------------------------1h3p1----| the timing
|-0-0-0-6p5-00-0-0-6p5-00-0-0-6p5-00------3h5-|
|-0-0-0-----00-0-0-----00-0-0-----00----------| x1
pm    .     .    .     .    .     ..

|--------------------------------------|
|--------------------------------------|
|--------------------------------------|
|--------------------------------5---7-|
|-0-00-6p5-00-0-0-6p5-000-0-6p5--3---5-|
|-0-00-----00-0-0-----000-0----00--00--| x1
pm   .     .    .     ..       ..  ..

|---------------------------------------------|
|---------------------------------------------|
|---------------------------------------------|
|------------------------------------1h3p1----|
|-0-0-0-6p5-00-0-0-6p5-00-0-0-6p5-00------3h5-|
|-0-0-0-----00-0-0-----00-0-0-----00----------| x1
pm    .     .    .     .    .     ..

bridge
guitar 1
(wah effect)
|-----------------------------------------------------------|
|-----------------------------------------------------------|
|-----------------------------------------------------------|
|-----------------------------------------------------------|
|-----------------------------------------------------------|
|-0-1-0-1-3-1-0-1-0-1-0-1-3-1-0-1-0-1-0-1-3-1-0-1-0-1-0-1-3-|

Repeat verse
Repeat Chorus

second beatdown
both guitars
|------------------------------------------------|
|------------------------------------------------|
|------------------------------------------------|
|-00-00--00-00--00-00--00-00--8-8-8-101010131313-|
|-00-00--00-00--00-00--00-00--8-8-8-101010131313-|
|-00-00--00-00--00-00--00-00--8-8-8-101010131313-| x3
pm.. .   .. .   .. .   .. .

interlude
|-----------------------------------------------------------|
|-----------------------------------------------------------|
|---------------------------------------------******--------|
|-0~---------------0~------------1110~--------555----0~-----|
|-0~---------------0~------------1110~-----------555-0~-----|
|-0~---------------0~------------1110~---------------0~-----|
pm                               ...

|-------------------------------------------------------------------|
|-------------------------------------------------------------------|
|-------------------------------------------------------------------|
|-\\\---------------------------------------------------------------|
|-\\\0--------------------------------------------------------------|
|-\\\0--1-0-1-3-1-0-1-0-1-0-1-3-1-0-1-0-1-0-1-3-1-0-1-0-1-0-1-3/5/3-|
pm      . . . . . . . . . . . . . . . . . . . . . . . . . . .

|-------------------------------------------------------------------|
|-------------------------------------------------------------------|slowly
|-------------------------------------------------------------------|release
|-0--1-0-1-3-1-0-1-0-1-0-1-3-1-0-1-0-1-0-1-3-1-0-1-0-1-0-1-3-1-0-1--|palm
|-------------------------------------------------------------------|mute
|-------------------------------------------------------------------|

"too much sorrow..."
clean (uses some effect)
|------------------------------------------------- (12's 13----|s
|------------------------------------------------- 15,s and 10-|s
|--------------------------------------------------------------| not 1,2,3,5's)
|-12012001200150120012001301200120012088810101010- x4
|-------------------------------------------------|
|-------------------------------------------------|
pm................................................

then repeat first beatdown, thats it!

By Nathan Mailer
Comments