Bullet For My Valentine - The Poison Chords & Tabs

 

The Poison Chords & Tabs

Bullet For My Valentine Chords & Tabs

Version: 1 Type: Tab 0 ratings
1 star 2 stars 3 stars 4 stars 5 stars
comments

The Poison Tab

Intro
=====
-------------------------------------------------|
-------------------------------------------------|
-------------------------------------------------| x3
-------------------------------------------------|
-7h10t14--7h10t15--7h10t14--7h10t15--7h10t15/t17-|
-------------------------------------------------|

--------------------------------------------|
--------------------------------------------|
--------------------------------------------|
--------------------------------------------|
-7h10t14--7h10t15--7h10-15-14-12-10-12-10-9-|
--------------------------------------------|

Verse
=====
-----------------------------------------------------|
-----------------------------------------------------|
-----------------------------------------------------|
-10-1010101010--5-5--9-9--2-22-22-22--10-9-7-5-7-5-4-|
-10-1010101010--5-5--9-9--2-22-22-22-----------------|
-10-1010101010--5-5--9-9--2-22-22-22-----------------|
    x x x x x               xx xx xx
--------------------------------------------|
--------------------------------------------|
--------------------------------------------|
-5-5555-777-444--2-22-22-22--10-9-7-5-7-5-4-|
-----------------2-22-22-22-----------------|
-----------------2-22-22-22-----------------|
                   xx xx xx
-----------------------------------------------------|
-----------------------------------------------------|
-----------------------------------------------------|
-10-1010101010--5-5--9-9--2-22-22-22--10-9-7-5-7-5-4-|
-10-1010101010--5-5--9-9--2-22-22-22-----------------|
-10-1010101010--5-5--9-9--2-22-22-22-----------------|
    x x x x x               xx xx xx
----------------|
----------------|
----------------|
-5-5555-777-444-|
----------------|
----------------|

Intro

Verse 2
=======
-----------------------------------------------------|
-----------------------------------------------------|
-----------------------------------------------------|
-10-1010101010--5-5--9-9--2-22-22-22--10-9-7-5-7-5-4-|
-10-1010101010--5-5--9-9--2-22-22-22-----------------|
-10-1010101010--5-5--9-9--2-22-22-22-----------------|
    x x x x x               xx xx xx
--------------------------------------------|
--------------------------------------------|
--------------------------------------------|
-5-5555-777-444--2-22-22-22--10-9-7-5-7-5-4-|
-----------------2-22-22-22-----------------|
-----------------2-22-22-22-----------------|
                   xx xx xx
-----------------------------------------------------|
-----------------------------------------------------|
-----------------------------------------------------|
-10-1010101010--5-5--9-9--2-22-22-22--10-9-7-5-7-5-4-|
-10-1010101010--5-5--9-9--2-22-22-22-----------------|
-10-1010101010--5-5--9-9--2-22-22-22-----------------|
    x x x x x               xx xx xx
-----------------|
-----------------|
-----------------|
-5-5555-777--2-2-|
-------------2-2-|
-------------2-2-|
             x x

Chorus
======
------------------------|
------------------------|
------------------------| x2
-2---10---5---10-10-9-9-|
-2---10---5---10-10-9-9-|
-2---10---5---10-10-9-9-|

-----------------------------|
-----------------------------|
-----------------------------|
-22-22-22-22--10-9-7-5-7-5-4-|
-22-22-22-22-----------------|
-22-22-22-22-----------------|
  xx xx xx xx

Verse 2

Chorus 2
========
------------------------|
------------------------|
------------------------| x2
-2---10---5---10-10-9-9-|
-2---10---5---10-10-9-9-|
-2---10---5---10-10-9-9-|

Bridge 1
========
------------------------------------------------------------|
------------------------------------------------------------|
----------------------------------------------2-------------|
-----4p2-5h4p2------5p2-4h5-------5p2-4p2-5p2---5p2-4h5p4-2-|  x2
-2-2------------3-3-----------5-5---------------------------|
-2-2--------------------------------------------------------|
[ Tab from: http://www.guitartabs.cc/tabs/b/bullet_for_my_valentine/the_poison_tab.html ]
Pre-Solo
========
-------------------------|
-------------------------|
-------------------------|
-2-2-2-2--10-9-7-5-7-5-4-|
-2-2-2-2-----------------|
-2-2-2-2-----------------|

Solo
====
-------12--------10--------12--------14--------|
-----------------------------------------------|
-11-12-----11-12-----11-12-----11-12-----11-12-|
-----------------------------------------------|
-----------------------------------------------|
-----------------------------------------------|

-------------------------------------------------|
-------------------------------------------------|
-16p14p12h14p12p11h12p11p9h11p9p7h9p7p5h7p5h7h9~-
-------------------------------------------------|
-------------------------------------------------|
-------------------------------------------------|

-15----------------|
----17----17-------|
-------16----16----| x4
----------------17-|
-------------------|
-------------------|

-15--------------------------------------------------|
----17----15-------12-------10-------------------17*-|
-------16----16-14----14-12----12-11--12-11-7-9------|
-----------------------------------------------------|
-----------------------------------------------------|
-----------------------------------------------------|

----17-15-14-15-14-12-10-12-14-15-17-19-|
-12-------------------------------------|
----------------------------------------|
----------------------------------------|
----------------------------------------|
----------------------------------------|

-19-19-15-17-15--------------19-19-15-17-15----|
----------------17-12-15-17-----------------17-|
-----------------------------------------------|
-----------------------------------------------|
-----------------------------------------------|
-----------------------------------------------|

-12b-14b-15b-17b-|
-----------------|
-----------------|
-----------------|
-----------------|
-----------------|

-19-22-22p19p17--19-22-22p19p17--19-22-22p19p17--19-22-19-22-24b-|
-----------------------------------------------------------------|
-----------------------------------------------------------------|
-----------------------------------------------------------------|
-----------------------------------------------------------------|
-----------------------------------------------------------------|

Break x2
=====
------------------    ------|
------------------    -5555-|
------------------    ------|
-222222---2222222- x2 ------|
-222222---2222222-    ------|
-222222---2222222-    ------|
 xxxxxx   xxxxxxx

Bridge 2 x2
========
---------------------------------------------------------------------------------|
---------------------------------------------------------------------------------|
---------------------------------------------------------------------------------|
-2222-2-2222-2-22-2-2/333-3-3333-3-333-3-5555-5-5555-5-5/333-3--7-5------7-5-----|
-2222-2-2222-2-22-2-2/333-3-3333-3-333-3-5555-5-5555-5-5/333-3------8-7------8-7-|
-2222-2-2222-2-22-2-2/333-3-3333-3-333-3-5555-5-5555-5-5/333-3-------------------|
 xxxx   xxxx   xx     xxx   xxxx   xxx   xxxx   xxxx     xxx    x x x x  x x x x

Intro
Chorus (Acoustic)
======
----------------------|
----------------------|
----------------------| x2
-2222--10101010--5555-|
-2222--10101010--5555-|
-2222--10101010--5555-|

Chorus 2
========
------------|
------------|
------------|
-10-10--9-9-|
-10-10--9-9-|
-10-10--9-9-|

------------------------|
------------------------|
------------------------| x2
-2---10---5---10-10-9-9-|
-2---10---5---10-10-9-9-|
-2---10---5---10-10-9-9-|

---------------------------------|
---------------------------------|
---------------------------------|
-2---10---5---0---2---10---5---9-|
-2---10---5---0---2---10---5---9-|
-2---10---5---0---2---10---5---9-|

Bridge 1 x4

Outro
=====
------------------------------|
------------------------------|
------------------------------|
--2-2-2-2--10-9-7-5-7-5-4-0-2-|
--2-2-2-2---------------------|
--2-2-2-2---------------------|
Comments