Bullet For My Valentine - The End Chords & Tabs

 

The End Chords & Tabs

Bullet For My Valentine Chords & Tabs

Version: 3 Type: Tab

The End Tab

-------------------------------------------------------------------------------
			     The End - Bullet for my valentine
-------------------------------------------------------------------------------
Tabbed by: Sebbo86
Email:

Tuning: Drop C
Basically this is my first tab and its a bit of a mess....
Intro - Guitar 1 - Clean 0:00 ------------------------------------------------|
e|----------------------------------------------------------------------------|
B|----------------------------------------------------------------------------|
G|----10-9---10--------10--9---7----------------------------------------------| x3
D|---------0-----------------0------------------------------------------------|
A|--0---0---0--------0----0---0-----------------------------------------------|
E|-0----------------0---------------------------------------------------------|
[ Tab from: http://www.guitartabs.cc/tabs/b/bullet_for_my_valentine/the_end_tab_ver_3.html ]
   0:25
e|-----------------------------------------------------------------------------|
B|-----------------------------------------------------------------------------|
G|---10--9---10/12------10--9---7----------------------------------------------|
D|---------0------------------0------------------------------------------------|
A|--0---0---0---------0----0---0-----------------------------------------------|
E|-0-----------------0---------------------------------------------------------|
   Intro - Guitar 2 - Clean 0:29
e|-----------------------------------------------------------------------------|
B|-10--8/6--6--6---------------------------------------------------------------|
G|--------------7--------------------------------------------------------------|
D|---------------7-------------------------------------------------------------|
A|----------------5------------------------------------------------------------|
E|-----------------------------------------------------------------------------|
   Verse - Clean - Guitar 1- 0:33----------------------------------------------|
e|-----------------------------------------------------------------------------|
B|-----------------------------------------------------------------------------|
G|---10-9---10--9---5-5-7-5------10--9---10-9-9/11~~---------------------------|
D|--------0----0--0--------------------0----0----------------------------------|
A|--0--0---0-------0------------0---0---0--------------------------------------|
E|-0---------------------------0-----------------------------------------------|
                                                                                         
                                                    x4
e|-----------------------------------------------------------------------------|
B|-----------------------------------------------------------------------------|
G|---10--9---10--9---5-5-7-5-----10--9-/-7-7-----------------------------------|
D|---------0----0--0-------------------0---------------------------------------|
A|--0---0---0-------0-----------0---0---0--------------------------------------|
E|-0---------------------------0-----------------------------------------------|
   Verse - Clean - Guitar 2- *1:06 - +1:19-------------------------------------|
e|-----------------------------------------------------------------------------|
B|-*6-------------+10-8/6-6-6--------------------------------------------------|
G|--7------------------------7-------------------------------------------------|
D|---7------------------------7------------------------------------------------|
A|----5------------------------5-----------------------------------------------|
E|-----------------------------------------------------------------------------|
   Verse - Dist - Guitar 2 - 1:23----------------------------------------------|
e|-----------------------------------------------------------------------------|
B|--9h10~-10b12r9~-12h14~-14b15r12/10~-----------------------------------------|
G|-----------------------------------------------------------------------------|
D|-----------------------------------------------------------------------------|
A|-----------------------------------------------------------------------------|
E|-----------------------------------------------------------------------------|
   Guitar 2 - 1:40
e|-----------------------------------------------------------------------------|
B|-----------------------------------------------------------------------------|
G|-----------------------------------------------------------------------------|
D|-7tp-8888-5tp-10tp-12~---4---------------------------------------------------|
A|-------------------------4-Whammy Bend---------------------------------------|
E|-------------------------4---------------------------------------------------|
   Guitar 1 - 1:40
e|---------------------------------------------------------------------------|
B|---------------------------------------------------------------------------|
G|-10tp-9999-12tp-14tp-------------------------------------------------------|
D|---------------------------------------------------------------------------|
A|---------------------------------------------------------------------------|
E|---------------------------------------------------------------------------|
   Guitar 2 - 2:10
e|-----------------------------------------------------------------------------|
B|-----------------------------------------------------------------------------|
G|-----------------------------------------------------------------------------|
D|-00000000--------------------------------------------------------------------|
A|-00000000--------------------------------------------------------------------|
C|-00000000--------------------------------------------------------------------|
      xxxxxxxx
   Both Guitars - 3:02 (note that all theese notes are chords and not picked)
|-------------------------------------------------------------------------------|
|-------------------------------------------------------------------------------|
|-------------------------------------------------------------------------------|
|-----7-----7---7-----7-------7-----7------0-10\--------------------------------|
|-0000800008-007-00008-0000-8-00-10-(x2)--0-10\---------------------------------|
|-0000-0000--00--0000---0000--00----------0-10\---------------------------------|
   xxxx   xxxx    xx   xxxx      xxxx    xx
  Guitar 2 - 3:17
|--------------------------------------------------------------------------------|
|--------------------------------------------------------------------------------|
|--------------------------------------------------------------------------------|
|-0000-7p0-5p0--------3p0-2p0-----2h3---0----------------------------------------|
|-0000------------------------------------0--------------------------------------|
|-0000-----------0000-----------00-------0---------------------------------------|
    xxxx                    xxxx                    xx
   Guitar 2 - 3:27
|--------------------------------------------------------------------------------|
|--------------------------------------------------------------------------------|
|-10/----------------10--------9h10p9-5h7----------------------------------------|
|-10/--------6-------10----------------------------------------------------------|
|-8-/--0000--6-0000--8--000000---------------------------------------------------|
|------0000--6-0000-----000000---------------------------------------------------|
             xxxx       xxxx          xxxxxx
Guitar 1 - 3:35
|--------------------------------------------------------------------------------|
|--------------------------------------------------------------------------------|
|--------------------------10----------------------------------------------------|
|-----------8/------6------10----------------------------------------------------|
|-7h8p7-3h5---0000-6-0000-8-000000-7h8p7-3h5-------------------------------------|
|--------------0000-6-0000---000000----------------------------------------------|
                           xxxx      xxxx      xxxxxx
 Guitar 2 - 3:44
|-------------------------------------------------------------------------------|
|-------------------------------------------------------------------------------|
|-10-10-10-9-9-9-12-12-12-9-9-9-10-10-10-10-------------------------------------|
|-------------------------------------------------------------------------------| x2
|-------------------------------------------------------------------------------|
|-------------------------------------------------------------------------------|
 Guitar 1 - 3:44
|------------------------------------------------------------------------------|
|-10-10-10-8-8-8-11-11-11-8-8-8-10-10-10-10------------------------------------|
|------------------------------------------------------------------------------| x2
|------------------------------------------------------------------------------|
|------------------------------------------------------------------------------|
|------------------------------------------------------------------------------|

This is basically all you need, i have not done the end bit coz i cant be arsed