Bullet For My Valentine - Suffocating Under Words Of Sorrow Chords & Tabs

 

Suffocating Under Words Of Sorrow Chords & Tabs

Bullet For My Valentine Chords & Tabs

Version: 2 Type: Tab 0 ratings
1 star 2 stars 3 stars 4 stars 5 stars
comments

Suffocating Under Words Of Sorrow Tab

   
b bend
p pull off
h hammer on
~ vibrato
T tapping

D|----------------------------------------------|
A|-10~---------10--12--13--12--10---------------|
F|-----------9---------------------10-9~--------|
C|----------------------------------------------|
G|----------------------------------------------|
C|----------------------------------------------|

D|-----------------------------------------|
A|-10-12-13p-12-13p-12-13p-12--------------|
F|----------------------------9-10~--------|
C|-----------------------------------------|
G|-----------------------------------------|
C|-----------------------------------------|

D|---------------------------------|
A|-12--13--15--17~--17---15h17-12--|
F|---------------------------------|
C|---------------------------------|
G|---------------------------------|
C|---------------------------------|
[ Tab from: http://www.guitartabs.cc/tabs/b/bullet_for_my_valentine/suffocating_under_words_of_sorrow_tab_ver_2.html ]
   T         T         T         T         T         T         T
D|-------------------------------------------------------------------------|
A|-------------------------------------------------------------------------|
F|-12p7h9p7--12p7h9p7--12p7h9p7--12p7h9p7--12p7h9p7--12p7h9p7--12p7h9p7----|
C|-------------------------------------------------------------------------|
G|-------------------------------------------------------------------------|
C|-------------------------------------------------------------------------|

   T         T         T         T         T         T         T 
D|-------------------------------------------------------------------------|
A|-------------------------------------------------------------------------|
F|-14p7h9p7--12p7h9p7--12p7h9p7--12p7h9p7--12p7h9p7--12p7h9p7--12p7h9p7----|
C|-------------------------------------------------------------------------|
G|-------------------------------------------------------------------------|
C|-------------------------------------------------------------------------|

D|------------------|--------------------------------|
A|------------------|--------------------------------|
F|------------------|--------------------------------|
C|------------------|-7~-9~-10~-12~-14~-15~-14~-12~--|
G|------------------|--------------------------------|
C|-<>-|--------------------------------|

 hope,that you like my tab,because its my first tab ever!!!



Comments