Bullet For My Valentine - Room 409 Chords & Tabs

 

Room 409 Chords & Tabs

Bullet For My Valentine Chords & Tabs

Version: 3 Type: Tab

Room 409 Tab

Bullet For My Valentine
Room 409
The Poison
Tuning; CGCFAD
Tabbed by; Carlson2000

KEY; tp = Tremelo Picking
      * = Pinch Harmonic
      x = Palm Mute

Intro
=====
----------------------------------------------------------------------------------|
----------------------------------------------------------------------------------|
----------------------------------------------------------------------------------|
----------------------------------------------------------------------------------|
-8--------8-------------7--------7-------------8--------8-------------7-----------|
---0-0-0----0-0-0-00-0----0-0-0----0-0-0-00-0----0-0-0----0-0-0-00-0----0-0-0--2b-|

------------------------------------------------------------------------------------------------|
------------------------------------------------------------------------------------------------|
------------------------------------------------------------------------------------------------|
------------------------------------------------------------------------------------------------|
-8--------8-------------7--------7-------------8--------8-------------7h8-7h8--7h8-7h8--8p7p5p3-|
---0-0-0----0-0-0-00-0----0-0-0----0-0-0-00-0----0-0-0----0-0-0-00-0----------------------------|

Chorus
======
---------------------------------------------------------|
---------------------------------------------------------|
---------------------------------------------------------|
-7-000-7-000-000-0--5-000-5-000--0-0--7-000-7-000--00-0--|
-7-000-7-000-000-0--5-000-5-000--0-0--7-000-7-000--00-0--|
-7-000-7-000-000-0--5-000-5-000--0-0--7-000-7-000--00-0--|
             xxx x               x x               xx x

ENDING 1;

--------------------------|
--------------------------|
--------------------------|
--------------------------|
--------------------------|
--8tp-7tp-5tp-7tp-5tp-3tp-|

ENDING 2;

----------------|
----------------|
----------------|
-8-7-5-7-5-3--0-|
-8-7-5-7-5-3--0-|
-8-7-5-7-5-3--0-|

Order; Ending 1, Ending 2

Verse
=====
--------------------------------------------------------------------|
--------------------------------------------------------------------|
--------------------------------------------------------------------| x2
------7-5--------8-7-------10-7-------------------------------------|
--------------------------------------------------------------------|
-0000------00000-----00000------0--7h8p7h8p7h8p7--9h10p9h10p9h10p9--|

--------------------------------------------------------------------|
--------------------------------------------------------------------|
------8-7-------10-7--------5-7-------------------------------------| x2
------8-7-------10-7--------5-7-------------------------------------|
------6-5-------8--5--------3-5-------------------------------------|
-0000------0000--------0000------7h8p7h8p7h8p7--9h10p9h10p9h10p9----|


Pre-Chorus
==========
---------------------------------------------------------------------------|
---------------------------------------------------------------------------|
---------------------------------------------------------------------------|
-------------------------------------------------------------------8-8-8-8-|
-8-------8------------7-------7-------------8-------8--------------8-8-8-8-|
---0-0-0---0-0-0-00-0---0-0-0---0-0-0-0-0-0---0-0-0---0-0-0-00-0---8-8-8-8-|

Chorus
Verse
Chorus

Solo
====
-22b(and octave/phaser)-
------------------------|
------------------------|
------------------------|
------------------------|
------------------------|
[ Tab from: http://www.guitartabs.cc/tabs/b/bullet_for_my_valentine/room_409_tab_ver_3.html ]
-------------------------------------|
-------------------------------------|
-------------------------12h13h14h15-|
-12h13h14h15h14h15h16h17-------------|
-------------------------------------|
-------------------------------------|

-------------------------------------------------|
-------------------------------------------------|
-------------------------12h13h14h15h14h15h16h17-|
-12h13h14h15h14h15h16h17-------------------------|
-------------------------------------------------|
-------------------------------------------------|

-------------------------------------------------|
-------------------------------------------------|
-------------------------12h13h14h15h14h15h16h17-|
-12h13h14h15h14h15h16h17-------------------------|
-------------------------------------------------|
-------------------------------------------------|

-------------12h13h14h15--------------12h13h14h15-|
-12h13h14h15--------------12h13h14h15-------------|
--------------------------------------------------|
--------------------------------------------------|
--------------------------------------------------|
--------------------------------------------------|

-17p15p13h15h17p15p13h15-
-------------------------|
-------------------------|
-------------------------|
-------------------------|
-------------------------|

-17tp-15tp-18tp-17tp--17tp-15tp------13tp-|
--------------------------------17tp------|
------------------------------------------|
------------------------------------------|
------------------------------------------|
------------------------------------------|

Bridge x4
======
-------------------------------------------|
-------------------------------------------|
-2p0---------3p0-2p0-----------------------|
-----5p0-3p0---------5-7-5--000-222-333-55-|
----------------------------000-222-333-55-|
----------------------------000-222-333-55-|
                     x x x

Bridge 2
========
-------------------5-3---------------------5-6-|
-----------------------------------------------|
-----------------3-----------------------3-----|
-8-0--8-0--8-0-----------8-0--8-0--8-0---------|
-8-0--8-0--8-0-----------8-0--8-0--8-0---------|
-8-0--8-0--8-0-----------8-0--8-0--8-0---------|

-----------------------------------------------------------5-6-|
---------------------------6-8*--------------------------------|
-------------------------3-------------------------------3-----|
-8-0--8-0--0000-8-0-8-0----------8-0--8-0--0000-8-0-8-0--------|
-8-0--8-0--0000-8-0-8-0----------8-0--8-0--0000-8-0-8-0--------|
-8-0--8-0--0000-8-0-8-0----------8-0--8-0--0000-8-0-8-0--------|
           xxxx                            xxxx

------------------------------------------------------------------------------------------------|
------------------------------------------------------------------------------------------------|
------------------------------------------------------------------------------------------------|
------------------------------------------------------------------------------------------------|
-8--------8-------------7--------7-------------8--------8-------------7h8-7h8--7h8-7h8--8p7p5p3-|
---0-0-0----0-0-0-00-0----0-0-0----0-0-0-00-0----0-0-0----0-0-0-00-0----------------------------|

Chorus

Outro
=====
--------------------------|
--------------------------|
--------------------------|
--------------------------|
--------------------------|
-10tp-8tp-7tp-8tp-7tp-5tp-|

-------------------------------------------------------|
-------------------------------------------------------|
-------------------------------------------------------|
------7-5-------8-7-------10-7-------------------------|
-------------------------------------------------------|
-0000-----00000-----00000-------7-8-7-8---10-12-10-8-0-|
                                x x x x   x  x   x x x