Bullet For My Valentine - No Control Chords & Tabs

 

No Control Chords & Tabs

Bullet For My Valentine Chords & Tabs

Version: 3 Type: Tab

No Control Tab

Bullet For My Valentine - No Control
Tabbed by: David Carthy - david_carthy@hotmail.com

Tuning: Drop C


Intro - Guitar 1

D|-----------------------------------------|-------------------------------------------|
A|-----------------------------------------|-------------------------------------------|
F|-----------------------------------------|-------------------------------------------|
C|-----------------------------------------|--10----------5-----5/7/5/7----------------|
G|-----------------------------------------|--8-----------3-----3/5/3/5----------------|
C|--0-Times-12-----------------------------|----0-0-0-0-0---0-0------------------------|
PM  .                                           . . . . .   . .


Verse

Guitar 1

D|-----------------------------------------|-------------------------------------------|
A|-----------------------------------------|-------------------------------------------|
F|-----------------------------------------|-------------------------------------------|
C|-----------------------------------------|--10----------5-----5/7/5/7----------------|
G|-----------------------------------------|--8-----------3-----3/5/3/5----------------|
C|--0-Times-12-----------------------------|----0-0-0-0-0---0-0------------------------|
PM  .                                           . . . . .   . .


Guitar 2

D|-----------------------------------------|-------------------------------------------|
A|-----------------------------------------|-------------------------------------------|
F|-----------------------------------------|-------------------------------------------|
C|-----------------------------------------|--10----------5-----5/7/5/7----------------|
G|-----------------------------------------|--8-----------3-----3/5/3/5----------------|
C|--0-Times-12-----------------------------|----0-0-0-0-0---0-0------------------------|
PM  .                                           . . . . .   . .


Guitar 1

D|-----------------------------------------|-------------------------------------------|
A|-----------------------------------------|-------------------------------------------|
F|-----------------------------------------|-------------------------------------------|
C|----0-------0-------0--------------------|--10----------5-----5/7/5/7----------------|
G|----0-------0-------0--------------------|--8-----------3-----3/5/3/5----------------|
C|--0-0--0-0--0--0-0--0--0-0-0-------------|----0-0-0-0-0---0-0------------------------|
PM  .    . .     . .     . . .                  . . . . .   . .


Guitar 2

D|-----------------------------------------|-------------------------------------------|
A|-----------------------------------------|-------------------------------------------|
F|-----------------------------------------|-------------------------------------------|
C|----0-------0-------0--------------------|--10----------5-----5/7/5/7----------------|
G|----0-------0-------0--------------------|--8-----------3-----3/5/3/5----------------|
C|--0-0--0-0--0--0-0--0--0-0-0-------------|----0-0-0-0-0---0-0------------------------|
PM  .    . .     . .     . . .                  . . . . .   . .


Both Guitars

D|-----------------------------------------|-------------------------------------------|
A|-----------------------------------------|-------------------------------------------|
F|-----------------------------------------|-------------------------------------------|
C|--0-0-0-0--0-0-0-0--0-0-0-0--0-0-0-------|--10----------5-----5/7/5/7----------------|
G|--0-0-0-0--0-0-0-0--0-0-0-0--0-0-0-------|--8-----------3-----3/5/3/5----------------|
C|--0-0-0-0--0-0-0-0--0-0-0-0--0-0-0-------|----0-0-0-0-0---0-0------------------------|
PM  . . . .  . . . .  . . . .  . . .            . . . . .   . .


Guitar 1

D|-----------------------------------------|-------------------------------------------|
A|--Times-3--------------------------------|-------------------------------------------|
F|-----------------------------------------|-------------------------------------------|
C|--0-0-0--5/7/5/7-------------------------|--9h10-7h9-5h9-3h5-3--0--------------------|
G|--0-0-0--3/5/3/5-------------------------|----------------------0--------------------|
C|--0-0-0----------------------------------|----------------------0--------------------|
PM  . .


Guitar 2

D|-----------------------------------------|-------------------------------------------|
A|--Times-3--------------------------------|-------------------------------------------|
F|-----------------------------------------|-------------------------------------------|
C|--0-0-0----------------------------------|----------------------0--------------------|
G|--0-0-0----------------------------------|--9h10-7h9-5h9-3h5-3--0--------------------|
C|--0-0-0----------------------------------|----------------------0--------------------|
PM  . .


Guitar 1

D|-----------------------------------------|-------------------------------------------|
A|-----------------------------------------|-------------------------------------------|
F|-----------------------------------------|-------------------------------------------|
C|--0-0-0--5/7/5/7-------------------------|--9h10-7h9-5h9-3h5-3--0--------------------|
G|--0-0-0--3/5/3/5-------------------------|----------------------0--------------------|
C|--0-0-0----------------------------------|----------------------0--------------------|
PM  . .


Guitar 2

D|-----------------------------------------|-------------------------------------------|
A|-----------------------------------------|-------------------------------------------|
F|-----------------------------------------|-------------------------------------------|
C|--0-0-0----------------------------------|----------------------0--------------------|
G|--0-0-0----------------------------------|--9h10-7h9-5h9-3h5-3--0--------------------|
C|--0-0-0----------------------------------|----------------------0--------------------|
PM  . .


Chorus

D|-----------------------------------------|-------------------------------------------|
A|-----------------------------------------|-------------------------------------------|
F|---------------------------7-------------|-------------------------------------------|
C|--3-3-3-3-5-5-5---3-5-7-3----------------|--12/--------------------------------------|
G|--3-3-3-3-5-5-5---1-3-5-1--5-------------|--12/--------------------------------------|
C|--3-3-3-3-5-5-5--------------------------|--12/--------------------------------------|
PM  . . . . . . .


Verse

Guitar 1

D|-----------------------------------------|-------------------------------------------|
A|-----------------------------------------|-------------------------------------------|
F|-----------------------------------------|-------------------------------------------|
C|-----------------------------------------|--10----------5-----5/7/5/7----------------|
G|-----------------------------------------|--8-----------3-----3/5/3/5----------------|
C|--0-Times-12-----------------------------|----0-0-0-0-0---0-0------------------------|
PM  .                                           . . . . .   . .


Guitar 2 (David)

D|-----------------------------------------|-------------------------------------------|
A|-----------------------------------------|-------------------------------------------|
F|-----------------------------------------|-------------------------------------------|
C|-----------------------------------------|--10----------5-----5/7/5/7----------------|
G|-----------------------------------------|--8-----------3-----3/5/3/5----------------|
C|--0-Times-12-----------------------------|----0-0-0-0-0---0-0------------------------|
PM  .                                           . . . . .   . .

Guitar 1

D|-----------------------------------------|-------------------------------------------|
A|-----------------------------------------|-------------------------------------------|
F|-----------------------------------------|-------------------------------------------|
C|----0-------0-------0--------------------|--10----------5-----5/7/5/7----------------|
G|----0-------0-------0--------------------|--8-----------3-----3/5/3/5----------------|
C|--0-0--0-0--0--0-0--0--0-0-0-------------|----0-0-0-0-0---0-0------------------------|
PM  .    . .     . .     . . .                  . . . . .   . .

Guitar 2

D|-----------------------------------------|-------------------------------------------|
A|-----------------------------------------|-------------------------------------------|
F|-----------------------------------------|-------------------------------------------|
C|----0-------0-------0--------------------|--10----------5-----5/7/5/7----------------|
G|----0-------0-------0--------------------|--8-----------3-----3/5/3/5----------------|
C|--0-0--0-0--0--0-0--0--0-0-0-------------|----0-0-0-0-0---0-0------------------------|
PM  .    . .     . .     . . .                  . . . . .   . .


D|-----------------------------------------|-------------------------------------------|
A|-----------------------------------------|-------------------------------------------|
F|-----------------------------------------|-------------------------------------------|
C|--0-0-0-0--0-0-0-0--0-0-0-0--0-0-0-------|--10----------5-----5/7/5/7----------------|
G|--0-0-0-0--0-0-0-0--0-0-0-0--0-0-0-------|--8-----------3-----3/5/3/5----------------|
C|--0-0-0-0--0-0-0-0--0-0-0-0--0-0-0-------|----0-0-0-0-0---0-0------------------------|
PM  . . . .  . . . .  . . . .  . . .            . . . . .   . .


Guitar 1

D|-----------------------------------------|-------------------------------------------|
A|-----------------------------------------|-------------------------------------------|
F|-----------------------------------------|-------------------------------------------|
C|--0-0-0--5/7/5/7-------------------------|--9h10-7h9-5h9-3h5-3--0--------------------|
G|--0-0-0--3/5/3/5-------------------------|----------------------0--------------------|
C|--0-0-0----------------------------------|----------------------0--------------------|
PM  . .


Guitar 2

D|-----------------------------------------|-------------------------------------------|
A|-----------------------------------------|-------------------------------------------|
F|-----------------------------------------|-------------------------------------------|
C|--0-0-0----------------------------------|----------------------0--------------------|
G|--0-0-0----------------------------------|--9h10-7h9-5h9-3h5-3--0--------------------|
C|--0-0-0----------------------------------|----------------------0--------------------|
PM  . .


Chorus

D|-----------------------------------------|-------------------------------------------|
A|-----------------------------------------|-------------------------------------------|
F|--------------------------7--------------|-------------------------------------------|
C|--3-3-3-3-5-5-5---3-5-7-3----------------|--7-9-7--0---------------------------------|
G|--3-3-3-3-5-5-5---1-3-5-1-5--------------|--5-7-5--0---------------------------------|
C|--3-3-3-3-5-5-5--------------------------|---------0---------------------------------|
PM  . . . . . . .


Breakdown (You said, your way...)

Guitar 1

D|-----------------------------------------|-------------------------------------------|
A|-----------------------------------------|-------------------------------------------|
F|-----------------------------------------|-------------------------------------------|
C|--0-0-----0-0-----0-0----9h10p9/3--------|-------------------------------------------|
G|--0-0-----0-0-----0-0--------------------|-------------------------------------------|
C|--0-0-----0-0-----0-0--------------------|-------------------------------------------|
PM


Guitar 2

D|-----------------------------------------|-------------------------------------------|
A|-----------------------------------------|-------------------------------------------|
F|-----------------------------------------|-------------------------------------------|
C|--0-0-----0-0-----0-0--------------------|-------------------------------------------|
G|--0-0-----0-0-----0-0----9h10p9/3--------|-------------------------------------------|
C|--0-0-----0-0-----0-0--------------------|-------------------------------------------|
PM


Guitar 1
[ Tab from: http://www.guitartabs.cc/tabs/b/bullet_for_my_valentine/no_control_tab_ver_3.html ]
D|-----------------------------------------|-------------------------------------------|
A|-----------------------------------------|-------------------------------------------|
F|-----------------------------------------|-------------------------------------------|
C|--15-14----12-15-15-17-15-14-15----------|--15-14----14------------------------------|
G|--------15-------------------------------|--------15----15---------------------------|
C|-----------------------------------------|-------------------------------------------|
PM

D|-----------------------------------------|-------------------------------------------|
A|-----------------------------------------|-------------------------------------------|
F|-----------------------------------------|-------------------------------------------|
C|--15-14----12-15-15-17-15-14-15----------|--15-14----14------------------------------|
G|--------15-------------------------------|--------15----15---------------------------|
C|-----------------------------------------|-------------------------------------------|
PM

D|-----------------------------------------|---------------------------------------------|
A|-----------------------------------------|---------------------------------------------|
F|-----------------------------------------|---------------------------------------------|
C|--15-14----12-15-15-15h17-14-15----------|--15-14----14-----0-0-0-0--------------------|
G|--------15-------------------------------|--------15----15--0-0-0-0--------------------|
C|-----------------------------------------|------------------0-0-0-0--------------------|
PM                                                            . . . .

D|-----------------------------------------|---------------------------------------------|
A|-----------------------------------------|---------------------------------------------|
F|-----------------------------------------|---------------------------------------------|
C|--15-14----12-15-15-15h17-14-15----------|--15-14----14-----0-0-0-0-0-0-0--------------|
G|--------15-------------------------------|--------15----15--0-0-0-0-0-0-0--------------|
C|-----------------------------------------|------------------0-0-0-0-0-0-0--------------|
PM                                                            . . . . . . .


Guitar 2

D|-----------------------------------------|-------------------------------------------|
A|-----------------------------------------|-------------------------------------------|
F|-----------------------------------------|-------------------------------------------|
C|--0-0-0--0-0-0--0-0--0-0-0--0-0-0--0-0-0-|--0-0-0-3(PH)------------------------------|
G|--0-0-0--0-0-0--0-0--0-0-0--0-0-0--0-0-0-|--0-0-0------------------------------------|
C|--0-0-0--0-0-0--0-0--0-0-0--0-0-0--0-0-0-|--0-0-0------------------------------------|
PM  . . .  . . .  . .  . . .  . . .  . . .    . . .

D|-----------------------------------------|-------------------------------------------|
A|-----------------------------------------|-------------------------------------------|
F|-----------------------------------------|-------------------------------------------|
C|--0-0-0--0-0-0--0-0--0-0-0--0-0-0--0-0-0-|--0-0-0------------------------------------|
G|--0-0-0--0-0-0--0-0--0-0-0--0-0-0--0-0-0-|--0-0-0-3(PH)------------------------------|
C|--0-0-0--0-0-0--0-0--0-0-0--0-0-0--0-0-0-|--0-0-0------------------------------------|
PM  . . .  . . .  . .  . . .  . . .  . . .    . . .

(Octave / Harmonised with Guitar 1)
D|-----------------------------------------|-------------------------------------------|
A|-----------------------------------------|-------------------------------------------|
F|-----------------------------------------|-------------------------------------------|
C|--8-7-3-5-8-8-8h10-7-8-------------------|--8-7-3-5-3--------------------------------|
G|-----------------------------------------|-------------------------------------------|
C|-----------------------------------------|-------------------------------------------|
PM


D|-----------------------------------------|-------------------------------------------|
A|-----------------------------------------|-------------------------------------------|
F|-----------------------------------------|-------------------------------------------|
C|--8-7-3-5-8-8-8h10-7-8-------------------|--8-7-3-5-3--------------------------------|
G|-----------------------------------------|-------------------------------------------|
C|-----------------------------------------|-------------------------------------------|
PM


Guitar 2                                    Guitar 1 (Join Guitar 2)

D|-----------------------------------------|-------------------------------------------|
A|-----------------------------------------|-------------------------------------------|
F|-----------------------------------------|-------------------------------------------|
C|--8-7-3-5-8-8-10-8-7-8-------------------|---8-7-3-5-3-------------------------------|
G|-0-0-0-0-0-0-0---------------------------|--0-0-0-0-0--------------------------------|
C|-----------------------------------------|-------------------------------------------|
PM ..............  . . .                      . . . . .


Chorus

D|-----------------------------------------|-------------------------------------------|
A|-----------------------------------------|-------------------------------------------|
F|--------------------------7--------------|-------------------------------------------|
C|--3-3-3-3-5-5-5---3-5-7-3----------------|--7-9-7--0---------------------------------|
G|--3-3-3-3-5-5-5---1-3-5-1-5--------------|--5-7-5--0---------------------------------|
C|--3-3-3-3-5-5-5--------------------------|---------0---------------------------------|
PM  . . . . . . .


Guitar 1

D|-----------------------------------------|-------------------------------------------|
A|-----------------------------------------|-------------------------------------------|
F|-----------------------------------------|-------------------------------------------|
C|--0-0-0--5/7/5/7-------------------------|--9h10-7h9-5h9-3h5-3--0--------------------|
G|--0-0-0--3/5/3/5-------------------------|----------------------0--------------------|
C|--0-0-0----------------------------------|----------------------0--------------------|
PM  . .


Guitar 2

D|-----------------------------------------|-------------------------------------------|
A|-----------------------------------------|-------------------------------------------|
F|-----------------------------------------|-------------------------------------------|
C|--0-0-0----------------------------------|----------------------0--------------------|
G|--0-0-0----------------------------------|--9h10-7h9-5h9-3h5-3--0--------------------|
C|--0-0-0----------------------------------|----------------------0--------------------|
PM  . .


Both Guitars

D|--------------------------------------------|----------------------------------------|
A|--------------------------------------------|----------------------------------------|
F|--------------------------------------------|----------------------------------------|
C|--0-0----------0-0----------0-0-------------|--0-0-0-0-0-0---------------------------|
G|--0-0-9-9-9-10-0-0-8-8-8-10-0-0-10-10-10-12-|--0-0-0-0-0-0---------------------------|
C|--0-0----------0-0----------0-0-------------|--0-0-0-0-0-0---------------------------|
PM  .   . . . .  .   . . . .  .   .  .  .  .     . . . . . .


Guitar 1

D|-----------------------------------------|---------------------------------------------|
A|-----------------------------------------|---------------------------------------------|
F|-----------------------------------------|---------------------------------------------|
C|--15-14----12-15-15-17-15-14-15----------|--15-14----14----0-0-0-0---------------------|
G|--------15-------------------------------|--------15----15-0-0-0-0---------------------|
C|-----------------------------------------|-----------------0-0-0-0---------------------|
PM                                                           . . . .
 .
D|-----------------------------------------|---------------------------------------------|
A|-----------------------------------------|---------------------------------------------|
F|-----------------------------------------|---------------------------------------------|
C|--15-14----12-15-15-17-15-14-15----------|--15-14----14-----0-0-0-0-0-0-0--------------|
G|--------15-------------------------------|--------15----15--0-0-0-0-0-0-0--------------|
C|-----------------------------------------|------------------0-0-0-0-0-0-0--------------|
PM                                                            . . . . . . .

D|-----------------------------------------|---------------------------------------------|
A|-----------------------------------------|---------------------------------------------|
F|-----------------------------------------|---------------------------------------------|
C|--15-14----12-15-15-15h17-14-15----------|--15-14----14-----0-0-0-0--------------------|
G|--------15-------------------------------|--------15----15--0-0-0-0--------------------|
C|-----------------------------------------|------------------0-0-0-0--------------------|
PM                                                            . . . .

D|-----------------------------------------|-------------------------------------------|
A|-----------------------------------------|-------------------------------------------|
F|-----------------------------------------|-------------------------------------------|
C|--15-14----12-15-15-15h17-14-15----------|--15-14----14-----0-0-0-0-0-0---0----------|
G|--------15-------------------------------|--------15----15--0-0-0-0-0-0---0----------|
C|-----------------------------------------|------------------0-0-0-0-0-0---0----------|
PM                                                            . . . . . .


Guitar 2

D|-----------------------------------------|-------------------------------------------|
A|-----------------------------------------|-------------------------------------------|
F|-----------------------------------------|-------------------------------------------|
C|--8-7-3-5-8-8-10-8-7-8-------------------|--8-7-3-5-3-------0-0-0-0------------------|
G|-----------------------------------------|------------------0-0-0-0------------------|
C|-----------------------------------------|------------------0-0-0-0------------------|
PM                                                            . . . .

D|-----------------------------------------|---------------------------------------------|
A|-----------------------------------------|---------------------------------------------|
F|-----------------------------------------|---------------------------------------------|
C|--8-7-3-5-8-8-10-8-7-8-------------------|--8-7-3-5-3-------0-0-0-0-0-0-0--------------|
G|-----------------------------------------|------------------0-0-0-0-0-0-0--------------|
C|-----------------------------------------|------------------0-0-0-0-0-0-0--------------|
PM                                                            . . . . . . .

D|-----------------------------------------|-------------------------------------------|
A|-----------------------------------------|-------------------------------------------|
F|-----------------------------------------|-------------------------------------------|
C|--8-7-3-5-8-8-8h10-7-8-------------------|--8-7-3-5-3-------0-0-0-0------------------|
G|-----------------------------------------|------------------0-0-0-0------------------|
C|-----------------------------------------|------------------0-0-0-0------------------|
PM                                                            . . . .

D|-----------------------------------------|-------------------------------------------|
A|-----------------------------------------|-------------------------------------------|
F|-----------------------------------------|-------------------------------------------|
C|--8-7-3-5-8-8-8h10-7-8-------------------|--8-7-3-5-3-------0-0-0-0-0-0---0----------|
G|-----------------------------------------|------------------0-0-0-0-0-0---0----------|
C|-----------------------------------------|------------------0-0-0-0-0-0---0----------|
PM                                                            . . . . . .