Bullet For My Valentine - Just Another Star Chords & Tabs

 

Just Another Star Chords & Tabs

Bullet For My Valentine Chords & Tabs

Version: 1 Type: Tab 0 ratings
1 star 2 stars 3 stars 4 stars 5 stars
comments

Just Another Star Tab

-------------------------------------------------------------------------------
			     Just Another Star - Bullet For My Valentine
-------------------------------------------------------------------------------
Tabbed by:Si Philllips
Email:

Tuning: Drop D

Intro/Verse:

e|-----------------------------|---------------------------------------------|
B|-----------------------------|---------------------------------------------|
G|-----12-10-12-13-12-10-12-x2-|----12-10-12-13-12-10-7-----12-10-12-19b-----| x2
D|-----------------------------|---------------------------------------------|
A|-----------------------------|---------------------------------------------|
D|--0-0--0--0--0--0--0--0------|-0-0--0--0--0--0--0--0---0-0--0--0--0--------|

Pre Chorus:

e|-------------------------|
B|-------------------------|
G|-----10---9----12----9---| x4
D|-----0----0----0-----0---|
A|--0-0--0-0--0-0---0-0----|
D|--0-0--0-0--0-0---0-0----|

Pre Verse:

e|---------------------------------------------------------------------------|
B|---------------------------------------------------------------------------|
G|---------------------------------------------------------------------------| x2
D|--1-0-0-1-0-0-1-0-0-1-0-1-0-1-0-0-1-0-0-1-0-0-1-0-1-0-1-0-0-1-0-0-1-0-0-1-0|
A|--1-0-0-1-0-0-1-0-0-1-0-1-0-1-0-0-1-0-0-1-0-0-1-0-1-0-1-0-0-1-0-0-1-0-0-1-0|
D|--1-0-0-1-0-0-1-0-0-1-0-1-0-1-0-0-1-0-0-1-0-0-1-0-1-0-1-0-0-1-0-0-1-0-0-1-0|

Verse:

e|-----------------------------|---------------------------------------------|
B|-----------------------------|---------------------------------------------|
G|-----12-10-12-13-12-10-12-x2-|----12-10-12-13-12-10-7-----12-10-12-19b-----| 
D|-----------------------------|---------------------------------------------|
A|-----------------------------|---------------------------------------------|
D|--0-0--0--0--0--0--0--0------|-0-0--0--0--0--0--0--0---0-0--0--0--0--------|

Pre Chorus:

e|-------------------------|
B|-------------------------|
G|-----10---9----12----9---| x4
D|-----0----0----0-----0---|
A|--0-0--0-0--0-0---0-0----|
D|--0-0--0-0--0-0---0-0----|

Pre Verse:
[ Tab from: http://www.guitartabs.cc/tabs/b/bullet_for_my_valentine/just_another_star_tab.html ]
e|---------------------------------------------------------------------------|
B|---------------------------------------------------------------------------|
G|---------------------------------------------------------------------------| x2
D|--1-0-0-1-0-0-1-0-0-1-0-1-0-1-0-0-1-0-0-1-0-0-1-0-1-0-1-0-0-1-0-0-1-0-0-1-0|
A|--1-0-0-1-0-0-1-0-0-1-0-1-0-1-0-0-1-0-0-1-0-0-1-0-1-0-1-0-0-1-0-0-1-0-0-1-0|
D|--1-0-0-1-0-0-1-0-0-1-0-1-0-1-0-0-1-0-0-1-0-0-1-0-1-0-1-0-0-1-0-0-1-0-0-1-0|

Chorus:

e|------------------------------------------|
B|------------------------------------------|
G|--101010101010101012-12-12-12-12-12-12-12-| x4
D|--8-8-8-8-8-8-8-8-10-10-10-10-10-10-10-10-|
A|--8-8-8-8-8-8-8-8-10-10-10-10-10-10-10-10-|
D|--8-8-8-8-8-8-8-8-10-10-10-10-10-10-10-10-|

Bridge:

e|----------------------------------------|
B|----------------------------------------|
G|----------------------------------------| x4
D|-----------109-------12-9-------109-7-9-|
A|-----------8-7-------10-7-------8-7-5-7-|
D|--0-0-0-0-0---0-0-0-0----0-0-0-0--------|

Bridge Pt 2:
e|-----------------------------------------------------------------------|
B|-----------------------------------------------------------------------|
G|-----------------------------------------------------------------------|
D|--8-----------8-8-8-----------8-8-8-8-8-8-8-8-8-8-8-8-8-8-8-8-8--8/10--|
A|--8-----------8-8-8-----------8-8-8-8-8-8-8-8-8-8-8-8-8-8-8-8-8--8/10--|
D|--8-----------8-8-8-----------8-8-8-8-8-8-8-8-8-8-8-8-8-8-8-8-8--8/10--|

Outro:
e|----------------------------------------------------|
B|----------------------------------------------------|
G|--121210101212131312121010-12b----------------------|
D|--------------------------------0-0--0-0--0-0--0-0--|
A|--------------------------------0-0--0-0--0-0--0-0--|
D|--------------------------------0-0--0-0--0-0--0-0--|

Order:

Intro/Verse x2
Pre Chorus x1
Pre Verse x1
Verse x1
Pre Chorus x1
Pre Verse x1
Chorus x1
Bridge x1
Bridge Pt 2 x1
Chorus x1
Bridge x1
Outro x1

This is my first tab ever so if you think its wrong then correct it please, oh and wot
i have tabbed is basically just the rythm of the song,i coudn't learn the lead, sorry
guys
				Si Phillips
===============================================================================
Comments