Bullet For My Valentine - Intro Chords & Tabs

 

Intro Chords & Tabs

Bullet For My Valentine Chords & Tabs

Version: 2 Type: Tab

Intro Tab

Intro
Bullet for my valentine
Poison

From my point of view this is the best album of the year.... Bullet for my valentine ROCKS!

This is my first version of tabs for this song, i know there are mistakes i will try
to work on them and post it again

Guitar comes in at 0:43

--------------------------------------------------------------------------------|
--------------------------------------------------------------------------------|  guitar 1
--------------5-3-5-------------5-3-5-------------------------------------------| 
----6-5-6--------------6-5-6-------------6-5-6----6-5-------6-5-6-----6-8-6-----|     x2
-8------------------------------------4---------------6-------------------------|
--------------------------------------------------------------------------------|

--------------------------------------------------------------------------------|
--------------------------------------------------------------------------------|  guitar 2
--------------------------------------------------------------------------------| 
--------------------------------------------------------------------------------|     x2
-8--------8---------8--------8--------4--------4--------4----------4------------|
--------------------------------------------------------------------------------|




--------------------------------------------------------------------------------|
--------------------------------------------------------------------------------|  guitar 1
--------------5-3-5-------------5-3-5-------------------------------------------| 
----6-5-6--------------6-5-6-------------6-5-6----6-5-------6-5-6-----6-8-6-----|     
-8------------------------------------4---------------6-------------------------|
--------------------------------------------------------------------------------|

-----------------------------------------8-6-8----8-6-------8-6-8-----8-9-8-----|
------------------------------------------------------8-------------------------|  guitar 2
--------------------------------------------------------------------------------|
--------------------------------------------------------------------------------|
-8--------8---------8--------8--------4--------4--------4----------4------------|
--------------------------------------------------------------------------------|



--------------------------------------------------------------------------------|
--------------------------------------------------------------------------------|  guitar 1
--------------5-3-5-------------5-3-5-------------------------------------------| 
----6-5-6--------------6-5-6-------------6-5-6----6-5-------6-5-6-----6-8-6-----|     
-8------------------------------------4---------------6-------------------------|
--------------------------------------------------------------------------------|

--------------------------------------------------------------------------------|
------------------------------------------------6\1-----------------------------|  guitar 2
--------------------------------------------------------------------------------|
--------------------------------------------------------------------------------|
--------------------------------------------------------------------------------|
--------------------------------------------------------------------------------|


[ Tab from: http://www.guitartabs.cc/tabs/b/bullet_for_my_valentine/intro_tab_ver_2.html ]
--------------------------------------------------------------------------------|
--------------------------------------------------------------------------------|  guitar 1
--------------5-3-5-------------5-3-5-------------------------------------------| 
----6-5-6--------------6-5-6-------------6-5-6----6-5-------6-5-6-----6-8-6-----|     
-8------------------------------------4---------------6-------------------------|
--------------------------------------------------------------------------------|

-----3-4-3---1-3-4-1-3-4--------------------------------------------------------|
-1 4---------------------4-4-6-4-6-6\1------------------------------------------|  guitar 2
--------------------------------------------------------------------------------|  distortion
--------------------------------------------------------------------------------|
--------------------------------------------------------------------------------|
--------------------------------------------------------------------------------|


--------------------------------------------------------------------------------|
--------------------------------------------------------------------------------|  guitar 1
--------------5-3-5-------------5-3-5-------------------------------------------| 
----6-5-6--------------6-5-6-------------6-5-6----6-5-------6-5-6-----6-8-6-----|     
-8------------------------------------4---------------6-------------------------|
--------------------------------------------------------------------------------|

-----3-4-3---1-3-4-1-3-4--------------------------------------------------------|
-1 4---------------------4-4-6-4-6----9-8---------------------------------------|  guitar 2
--------------------------------------------------------------------------------|  distortion + feedback delay
--------------------------------------------------------------------------------|
--------------------------------------------------------------------------------|
--------------------------------------------------------------------------------|


--------------------------------------------------------------------------------|
--------------------------------------------------------------------------------|  guitar 1
--------------5-3-5-------------5-3-5-------------------------------------------| 
----6-5-6--------------6-5-6-------------6-5-6----6-5-------6-5-6-----6-8-6-----|     
-8------------------------------------4---------------6-------------------------|
--------------------------------------------------------------------------------|

-20\4---------------------------------------------------------------------------|
--------------------------------------------------------------------------------|  guitar 2
--------------------------------------------------------------------------------|  distortion + feedback delay
--------------------------------------------------------------------------------|
--------------------------------------------------------------------------------|
--------------------------------------------------------------------------------|


--------------------------------------------------------------------------------|
-------------------------------------6-3----------------------------------6-3---|  guitar 1
---5-6-5----5-6-5------5-6-5-8-5-6-5-------5-6-5----5-6-5---5-6-5-8-5-6-5-------|
--------------------------------------------------------------------------------|
--------------------------------------------------------------------------------|
--------------------------------------------------------------------------------|


--------------------------------------------------------------------------------|
--------------------------------------------------------------------------------|  guitar 2
--------------------------------------------------------------------------------| 
--------------------------------------------------------------------------------|    
-3--------3---------3-------------------3---------3-------3---------------------|
--------------------------------------------------------------------------------|