Bullet For My Valentine - Hit The Floor Chords & Tabs

 

Hit The Floor Chords & Tabs

Bullet For My Valentine Chords & Tabs

Version: 3 Type: Tab

Hit The Floor Tab

Bullet For My Valentine
Hit The Floor
The Poison (2005)
Tuning; CGCFAD
Tabbed by Carlson2000

Intro
=====
-----------------------------------|
-----------------------------------|
-----------------------------------|
-----4------4------4------4------4-|
-----------------------------------|
-2-2----2-2----2-2----2-2----2-2---|
 x x    x x    x x    x x    x x

-------------------------------------|
-------------------------------------|
-------------------------------------|
-----5------5------5------5------5/7-|
-------------------------------------|
-2-2----2-2----2-2----2-2----2-2-----|
 x x    x x    x x    x x    x x

-----------------------------------|
-----------------------------------|
-----------------------------------|
-----4------4------4------4------4-|
-----------------------------------|
-2-2----2-2----2-2----2-2----2-2---|
 x x    x x    x x    x x    x x

-------------------------------|
-------------------------------|
-------------------------------|
-----5------5----5---2-5-2-5-2-|
---------------------2-5-2-5-2-|
-2-2----2-2----2-----2-5-2-5-2-|
 x x    x x    x
[ Tab from: http://www.guitartabs.cc/tabs/b/bullet_for_my_valentine/hit_the_floor_tab_ver_3.html ]
Intro 2
=======
--------------------------------------------------------------|
--------------------------------------------------------------|
--------------------------------------------------------------|
-222-222-222---------222-222-222----------222-222-222---------|
-222-222-222---------222-222-222----------222-222-222---------|
-222-222-222-0000000-222-222-222-00000000-222-222-222-0000000-|

then

-----------------------|
-----------------------|
-----------------------|
-222-222-222-2-5-2-5-2-|
-222-222-222-2-5-2-5-2-|
-222-222-222-2-5-2-5-2-|

Intro Solo
==========
Guitar 1
-------------------------------------------|
-8-12-10-7--13-12-10h8p10-8-7-8-7-5-7-8-7--|
-------------------------------------------|
-------------------------------------------|
-------------------------------------------|
-------------------------------------------|

----------------------------------------------|
-8-12-10-13--13-12-10h8p10-8-7-8-7-5-7-8-7-8~-|
----------------------------------------------|
----------------------------------------------|
----------------------------------------------|
----------------------------------------------|

Guitar 2
-15-19-17-14--20-19-17h15p17-15-14-15-14-12-14-15-14-|
-----------------------------------------------------|
-----------------------------------------------------|
-----------------------------------------------------|
-----------------------------------------------------|
-----------------------------------------------------|

-15-19-17-20--20-19-17h15p17-15-14-15-14-12-14-15-14-15~-|
---------------------------------------------------------|
---------------------------------------------------------|
---------------------------------------------------------|
---------------------------------------------------------|
---------------------------------------------------------|