Bullet For My Valentine - Her Voice Resides Chords & Tabs

 

Her Voice Resides Chords & Tabs

Bullet For My Valentine Chords & Tabs

Version: 3 Type: Tab

Her Voice Resides Tab

Bullet For My Valentine
Her Voice Resides
The Poison (2005)
Tuning: CGCFAD
Tabbed by: Carlson2000


Intro
=====
---------------               \
---------------               |
---------------               |
-0000000000000-               |
-0000000000000-               |
-0000000000000-               |
                               \
then                            > x3
                               /
---------------------------   |
---------------------------   |
--2-0----------------------   |
-------2-3-----------------   |
------------1-0-1----5-3-5-   |
---------------------------   /

THEN..

---------------
---------------
---------------
-0000000000000-
-0000000000000-
-0000000000000-

------------------
------------------
--2-0-------3~/5~-
-------2-3--3~/5~-
------------1~/3~-
------------------

Verse x2
=====
-------------------------------------------
-------------------------------------------
-------------------------------------------
-000-000000--2p3h2--000000--7-7-55-8-8-5-5-
-000-000000---------000000-----------------
-000-000000---------000000-----------------

-------------------------------------------------
----------------------------10--10-8-8-11-11-8-8-
-------------------------------------------------
-000-000000--2p3h2--000000-----------------------
-000-000000---------000000-----------------------
-000-000000---------000000-----------------------

Chorus
======
--------------------
--------------------
-333-555------9-10--
-333-555-777--9-10--
-111-333-777--7-8---
---------777--------

------------x-----------x-
------------x-----------x-
-333-555----x-----------x-
-333-555-7--x-pickslide-x-
-111-333-7--x-----------x-
---------7--x-----------x-

--------------------
--------------------
-333-555------9-10--
-333-555-777--9-10--
-111-333-777--7-8---
---------777--------

--------------
----------7b~-
-333-555------
-333-555------
-111-333------
--------------

Break
=====
--------------
--------------
--------------
-00000000--7*-
-00000000-----
-00000000-----

Repeat Intro

Break 2
=======
-----------------
-----------------
-----------------
-2-0-2-3-5-3-2-0-
-----------------
-----------------

Verse
Chorus
Break
Intro

Bridge (w/ phaser)
======
------------------------------
------------------------------
-10-10p9-----12-12-9-9-9h10--- x8
--------h10-------------------
------------------------------
------------------------------

Bridge 2
========
-------------------------------------------------------
-------------------------------------------------------
-------------------------------------------------------
-5-7-5h0--3-5--5-7-5h0--3-5--5-7-5h0--3-5--8-7-5-7-5h0- x4
-------------------------------------------------------
-------------------------------------------------------

-------------------------------------
-------------------------------------
-------------------------------------
-22222222-33333333-22222222-33333333-
-------------------------------------
-------------------------------------

Solo Build Up
=============
------------------------------------
-----------------2h3h4h5-6h7h8h9-10-
---------2h3h4h5--------------------
-2h3h4h5----------------------------
------------------------------------
------------------------------------
[ Tab from: http://www.guitartabs.cc/tabs/b/bullet_for_my_valentine/her_voice_resides_tab_ver_3.html ]
Solo
====
-------------------------------------------------------
-10~-10h9h8h7------------------------------------------
--------------7~--10h12p10h12p10h12--9h10p9h10p9h10-7~-
-------------------------------------------------------
-------------------------------------------------------
-------------------------------------------------------

----13h17-----13h17-----13h17-----13h17------12h15----12h15----12h15----12h15-
-15--------15--------15--------15---------13-------13-------13-------13-------
------------------------------------------------------------------------------
------------------------------------------------------------------------------
------------------------------------------------------------------------------
------------------------------------------------------------------------------

----10h13----10h13----10h13----10h13---15b//-
-11-------11-------11--------11--------------
---------------------------------------------
---------------------------------------------
---------------------------------------------
---------------------------------------------

-------------------------------------------
-------------------------------------------
-10-9---/15-14-9--10-9---7--10-9-12-10-9---
------7----------------7-----------------9-
-------------------------------------------
-------------------------------------------

-17t13----13--17t13----13--17t13----13--17t13----13-
------h15----------h15----------h15----------h15----
----------------------------------------------------
----------------------------------------------------
----------------------------------------------------
----------------------------------------------------

-18t13----13--18t13----13--18t13----13--18t13----13-
------h15----------h15----------h15----------h15----
----------------------------------------------------
----------------------------------------------------
----------------------------------------------------
----------------------------------------------------

-20t13----13--20t13----13--20t13----13--20t13----13-
------h15----------h15----------h15----------h15----
----------------------------------------------------
----------------------------------------------------
----------------------------------------------------
----------------------------------------------------

---------------------
-10-10-8-8-11-11-8-8-
---------------------
---------------------
---------------------
---------------------

Chorus
Break
Intro

Outro
=====
Guitar 1
--------------------
--------------------
-------------------- x4
-00-00-00-00--000-8-
-00-00-00-00--000-8-
-00-00-00-00--000-8-

Guitar 2 (w/ phaser)
------------------------------------------------------
------------------------------------------------------
-10-10p9-----12-12-9-9-9h10---10-10p9-----12-12-12-9~- x4
--------h10---------------------------h10-------------
------------------------------------------------------
------------------------------------------------------

THEN

Guitar 1 and Guitar 2
----------------------------------------------------------
----------------------------------------------------------
----------------------------------------------------------
-00-00-00-00--00-00-00-00--00-00-00-00--12/--00-00-0--5*b-
-00-00-00-00--00-00-00-00--00-00-00-00--12/--00-00-0------
-00-00-00-00--00-00-00-00--00-00-00-00--12/--00-00-0------