Bullet For My Valentine - Her Voice Resides Chords & Tabs

 

Her Voice Resides Chords & Tabs

Bullet For My Valentine Chords & Tabs

Version: 2 Type: Tab

Her Voice Resides Tab

   
Bullet For My Valentine
Her Voice Resides
The Poison
2005

Drop C


INTRO
--------------------------------------------------------------------------------------|
--------------------------------------------------------------------------------------|
--------------------------------------------------------------------------------------|
----------------------7-5-------------------------------------------------------------|
---0-0-0-0-0-0-0-0-0-------7-8--8-7-8--12-10-12---------------------------------------|
---0-0-0-0-0-0-0-0-0-----0------8-7-8--12-10-12---------------------------------------|
     * * * * * * * *     *

--------------------------------------------------------------------------------------|
--------------------------------------------------------------------------------------|
--------------------------------------------------------------------------------------|
----------------------7-5-------------------------------------------------------------|
---0-0-0-0-0-0-0-0-0-------7-8--8-7-8--12-10-12---------------------------------------|
---0-0-0-0-0-0-0-0-0-----0------8-7-8--12-10-12---------------------------------------|
     * * * * * * * *     *

--------------------------------------------------------------------------------------|
--------------------------------------------------------------------------------------|
--------------------------------------------------------------------------------------|
----------------------7-5-------------------------------------------------------------|
---0-0-0-0-0-0-0-0-0-------7-8--8-7-8--12-10-12---------------------------------------|
---0-0-0-0-0-0-0-0-0-----0------8-7-8--12-10-12---------------------------------------|
     * * * * * * * *     *

--------------------------------------------------------------------------------------|
--------------------------------------------------------------------------------------|
--------------------------------------------------------------------------------------|
----------------------7-5-------------------------------------------------------------|
---0-0-0-0-0-0-0-0-0-------7-8--8---------10------------------------------------------|
---0-0-0-0-0-0-0-0-0-----0------8---------10------<<<<<-------------------------------|
     * * * * * * * *     *


VERSE
--------------------------------------------------------------------------------------|
--------------------------------------------------------------------------------------|
--------------------------------------------------------------------------------------|
----------------------------------------7-7-5-5-8-8-5-5-------------------------------|
---------------------7h8p7------------------------------------------------------------|
---0-0-0-0-0-0-0-0-0------7-0-0-0-0-0-0-----------------------------------------------|
     * * * * * * * *        * * * * * *

--------------------------------------------------------------------------------------|
--------------------------------------------------------------------------------------|
----------------------------------------10-10-9-9-12-12-9-9---------------------------|
--------------------------------------------------------------------------------------|
---------------------7h8p7------------------------------------------------------------|
---0-0-0-0-0-0-0-0-0------7-0-0-0-0-0-0-----------------------------------------------|
     * * * * * * * *        * * * * * *

--------------------------------------------------------------------------------------|
--------------------------------------------------------------------------------------|
--------------------------------------------------------------------------------------|
----------------------------------------7-7-5-5-8-8-5-5-------------------------------|
---------------------7h8p7------------------------------------------------------------|
---0-0-0-0-0-0-0-0-0------7-0-0-0-0-0-0-----------------------------------------------|
     * * * * * * * *        * * * * * *

--------------------------------------------------------------------------------------|
--------------------------------------------------------------------------------------|
----------------------------------------10-10-9-9-12-12-9-9---------------------------|
--------------------------------------------------------------------------------------|
---------------------7h8p7------------------------------------------------------------|
---0-0-0-0-0-0-0-0-0------7-0-0-0-0-0-0-----------------------------------------------|
     * * * * * * * *        * * * * * *


CHORUS
--------------------------------------------------------------------------------------|
--------------------------------------------------------------------------------------|
--------------------------------------------------------------------------------------|
--------------------------------------------------------------------------------------|
---8-8--10-10--8-8--14-15--8-8-10-10--------------------------------------------------|
---8-8--10-10--8-8--14-15--8-8-10-10-<<<<<<<------------------------------------------|

--------------------------------------------------------------------------------------|
--------------------------------------------------------------------------------------|
--------------------------------------------------------------------------------------|
-------------------------------------7h8p7h8p7h8p7h8----------------------------------|
---8-8--10-10--8-8--14-15--8-8-10-10--------------------------------------------------|
---8-8--10-10--8-8--14-15--8-8-10-10--------------------------------------------------|


INTERLUDE
--------------------------------------------------------------------------------------|
--------------------------------------------------------------------------------------|
--------------------------------------------------------------------------------------|
----------------------7-5-------------------------------------------------------------|
---0-0-0-0-0-0-0-0-0-------7-8--8-7-8--12-10-12---------------------------------------|
---0-0-0-0-0-0-0-0-0-----0------8-7-8--12-10-12---------------------------------------|
     * * * * * * * *     *

--------------------------------------------------------------------------------------|
--------------------------------------------------------------------------------------|
--------------------------------------------------------------------------------------|
----------------------7-5-------------------------------------------------------------|
---0-0-0-0-0-0-0-0-0-------7-8--8-7-8--12-10-12---------------------------------------|
---0-0-0-0-0-0-0-0-0-----0------8-7-8--12-10-12---------------------------------------|
     * * * * * * * *     *

--------------------------------------------------------------------------------------|
--------------------------------------------------------------------------------------|
--------------------------------------------------------------------------------------|
----------------------7-5-------------------------------------------------------------|
---0-0-0-0-0-0-0-0-0-------7-8--8-7-8--12-10-12---------------------------------------|
---0-0-0-0-0-0-0-0-0-----0------8-7-8--12-10-12---------------------------------------|
     * * * * * * * *     *

--------------------------------------------------------------------------------------|
--------------------------------------------------------------------------------------|
--------------------------------------------------------------------------------------|
----------------------7-5-------------------------------------------------------------|
---0-0-0-0-0-0-0-0-0-------7-8--8---------10------------------------------------------|
---0-0-0-0-0-0-0-0-0-----0------8---------10------<<<<<-------------------------------|
     * * * * * * * *     *


VERSE
--------------------------------------------------------------------------------------|
--------------------------------------------------------------------------------------|
--------------------------------------------------------------------------------------|
----------------------------------------7-7-5-5-8-8-5-5-------------------------------|
---------------------7h8p7------------------------------------------------------------|
---0-0-0-0-0-0-0-0-0------7-0-0-0-0-0-0-----------------------------------------------|
     * * * * * * * *        * * * * * *

--------------------------------------------------------------------------------------|
--------------------------------------------------------------------------------------|
----------------------------------------10-10-9-9-12-12-9-9---------------------------|
--------------------------------------------------------------------------------------|
---------------------7h8p7------------------------------------------------------------|
---0-0-0-0-0-0-0-0-0------7-0-0-0-0-0-0-----------------------------------------------|
     * * * * * * * *        * * * * * *

--------------------------------------------------------------------------------------|
--------------------------------------------------------------------------------------|
--------------------------------------------------------------------------------------|
----------------------------------------7-7-5-5-8-8-5-5-------------------------------|
---------------------7h8p7------------------------------------------------------------|
---0-0-0-0-0-0-0-0-0------7-0-0-0-0-0-0-----------------------------------------------|
     * * * * * * * *        * * * * * *

--------------------------------------------------------------------------------------|
--------------------------------------------------------------------------------------|
----------------------------------------10-10-9-9-12-12-9-9---------------------------|
--------------------------------------------------------------------------------------|
---------------------7h8p7------------------------------------------------------------|
---0-0-0-0-0-0-0-0-0------7-0-0-0-0-0-0-----------------------------------------------|
     * * * * * * * *        * * * * * *


CHORUS
--------------------------------------------------------------------------------------|
--------------------------------------------------------------------------------------|
--------------------------------------------------------------------------------------|
--------------------------------------------------------------------------------------|
---8-8--10-10--8-8--14-15--8-8-10-10--------------------------------------------------|
---8-8--10-10--8-8--14-15--8-8-10-10-<<<<<<<------------------------------------------|

--------------------------------------------------------------------------------------|
--------------------------------------------------------------------------------------|
--------------------------------------------------------------------------------------|
-------------------------------------7h8p7h8p7h8p7h8----------------------------------|
---8-8--10-10--8-8--14-15--8-8-10-10--------------------------------------------------|
---8-8--10-10--8-8--14-15--8-8-10-10--------------------------------------------------|
[ Tab from: http://www.guitartabs.cc/tabs/b/bullet_for_my_valentine/her_voice_resides_tab_ver_2.html ]
INTERLUDE
--------------------------------------------------------------------------------------|
--------------------------------------------------------------------------------------|
--------------------------------------------------------------------------------------|
----------------------7-5-------------------------------------------------------------|
---0-0-0-0-0-0-0-0-0-------7-8--8-7-8--12-10-12---------------------------------------|
---0-0-0-0-0-0-0-0-0-----0------8-7-8--12-10-12---------------------------------------|
     * * * * * * * *     *

--------------------------------------------------------------------------------------|
--------------------------------------------------------------------------------------|
--------------------------------------------------------------------------------------|
----------------------7-5-------------------------------------------------------------|
---0-0-0-0-0-0-0-0-0-------7-8--8-7-8--12-10-12---------------------------------------|
---0-0-0-0-0-0-0-0-0-----0------8-7-8--12-10-12---------------------------------------|
     * * * * * * * *     *

--------------------------------------------------------------------------------------|
--------------------------------------------------------------------------------------|
--------------------------------------------------------------------------------------|
----------------------7-5-------------------------------------------------------------|
---0-0-0-0-0-0-0-0-0-------7-8--8-7-8--12-10-12---------------------------------------|
---0-0-0-0-0-0-0-0-0-----0------8-7-8--12-10-12---------------------------------------|
     * * * * * * * *     *

--------------------------------------------------------------------------------------|
--------------------------------------------------------------------------------------|
--------------------------------------------------------------------------------------|
----------------------7-5-------------------------------------------------------------|
---0-0-0-0-0-0-0-0-0-------7-8--8---------10------------------------------------------|
---0-0-0-0-0-0-0-0-0-----0------8---------10------------------------------------------|
     * * * * * * * *     *

BREAKDOWN (WAH) - repeat as many times as needed
--------------------------------------------------------------------------------------|
---10-10p9--12p10---------------------------------------------------------------------|
--------------------------------------------------------------------------------------|
--------------------------------------------------------------------------------------|
--------------------------------------------------------------------------------------|
--------------------------------------------------------------------------------------|

BREAKDOWN 2
--------------------------------------------------------------------------------------|
--------------------------------------------------------------------------------------|
--------------------------------------------------------------------------------------|
-----7p5----------7p5---------7p5-------8-7-5-7-5-3-----------------------------------|
--0------8h10--0------8h10--0-----8h10------------------------------------------------|
--0------------0------------0---------------------------------------------------------|

--------------------------------------------------------------------------------------|
--------------------------------------------------------------------------------------|
--------------------------------------------------------------------------------------|
-----7p5----------7p5---------7p5-------8-7-5-7-5-3-----------------------------------|
--0------8h10--0------8h10--0-----8h10------------------------------------------------|
--0------------0------------0---------------------------------------------------------|

--------------------------------------------------------------------------------------|
--------------------------------------------------------------------------------------|
--------------------------------------------------------------------------------------|
-----7p5----------7p5---------7p5-------8-7-5-7-5-3-----------------------------------|
--0------8h10--0------8h10--0-----8h10------------------------------------------------|
--0------------0------------0---------------------------------------------------------|

--------------------------------------------------------------------------------------|
--------------------------------------------------------------------------------------|
--------------------------------------------------------------------------------------|
-----7p5----------7p5---------7p5-------8-7-5-7-5-3-----------------------------------|
--0------8h10--0------8h10--0-----8h10--------------7-7-7-7-8-8-8-8-------------------|
--0------------0------------0---------------------------------------------------------|
                                                    * * * * * * * *

SOLO (WAH) - its all i have gotten so far
--------------------------------------------------------------------------------------|
--------------------------------------------------------------------------------------|
-------------------------10-12-14~----7~--10h12p10h12--9h10p9h10--7-9~----------------|
-------------------10-12--------------------------------------------------------------|
---7-7-7-7-7-10-12--------------------------------------------------------------------|
--------------------------------------------------------------------------------------|

CHORUS
--------------------------------------------------------------------------------------|
--------------------------------------------------------------------------------------|
--------------------------------------------------------------------------------------|
--------------------------------------------------------------------------------------|
---8-8--10-10--8-8--14-15--8-8-10-10--------------------------------------------------|
---8-8--10-10--8-8--14-15--8-8-10-10-<<<<<<<------------------------------------------|

--------------------------------------------------------------------------------------|
--------------------------------------------------------------------------------------|
--------------------------------------------------------------------------------------|
-------------------------------------7h8p7h8p7h8p7h8----------------------------------|
---8-8--10-10--8-8--14-15--8-8-10-10--------------------------------------------------|
---8-8--10-10--8-8--14-15--8-8-10-10--------------------------------------------------|

INTERLUDE
--------------------------------------------------------------------------------------|
--------------------------------------------------------------------------------------|
--------------------------------------------------------------------------------------|
----------------------7-5-------------------------------------------------------------|
---0-0-0-0-0-0-0-0-0-------7-8--8-7-8--12-10-12---------------------------------------|
---0-0-0-0-0-0-0-0-0-----0------8-7-8--12-10-12---------------------------------------|
     * * * * * * * *     *

--------------------------------------------------------------------------------------|
--------------------------------------------------------------------------------------|
--------------------------------------------------------------------------------------|
----------------------7-5-------------------------------------------------------------|
---0-0-0-0-0-0-0-0-0-------7-8--8-7-8--12-10-12---------------------------------------|
---0-0-0-0-0-0-0-0-0-----0------8-7-8--12-10-12---------------------------------------|
     * * * * * * * *     *

--------------------------------------------------------------------------------------|
--------------------------------------------------------------------------------------|
--------------------------------------------------------------------------------------|
----------------------7-5-------------------------------------------------------------|
---0-0-0-0-0-0-0-0-0-------7-8--8-7-8--12-10-12---------------------------------------|
---0-0-0-0-0-0-0-0-0-----0------8-7-8--12-10-12---------------------------------------|
     * * * * * * * *     *

--------------------------------------------------------------------------------------|
--------------------------------------------------------------------------------------|
--------------------------------------------------------------------------------------|
----------------------7-5-------------------------------------------------------------|
---0-0-0-0-0-0-0-0-0-------7-8--8-----------------------------------------------------|
---0-0-0-0-0-0-0-0-0-----0------8-----------------------------------------------------|
     * * * * * * * *     *

OUTRO
--------------------------------------------------------------------------------------|
--------------------------------------------------------------------------------------|
--------------------------------------------------------------------------------------|
--------------------------------------------------------------------------------------|
---0-0--0-0--0-0--0-0------------------0-0-0-8----------------------------------------|
---0-0--0-0--0-0--0-0------------------0-0-0-8----------------------------------------|
   * *  * *  * *  * *                  * * *

--------------------------------------------------------------------------------------|
--------------------------------------------------------------------------------------|
--------------------------------------------------------------------------------------|
--------------------------------------------------------------------------------------|
---0-0--0-0--0-0--0-0------------------0-0-0-8----------------------------------------|
---0-0--0-0--0-0--0-0------------------0-0-0-8----------------------------------------|
   * *  * *  * *  * *                  * * *

--------------------------------------------------------------------------------------|
--------------------------------------------------------------------------------------|
--------------------------------------------------------------------------------------|
--------------------------------------------------------------------------------------|
---0-0--0-0--0-0--0-0--0-0--0-0--0-0--0-8---------------------------------------------|
---0-0--0-0--0-0--0-0--0-0--0-0--0-0--0-8---------------------------------------------|
   *    *    *    *    *    *    *    *
--------------------------------------------------------------------------------------|
--------------------------------------------------------------------------------------|
--------------------------------------------------------------------------------------|
--------------------------------------------------------------------------------------|
---0-0--0-0--0-0--0-0------------------0-0-0-8----------------------------------------|
---0-0--0-0--0-0--0-0------------------0-0-0-8----------------------------------------|
   * *  * *  * *  * *                  * * *

--------------------------------------------------------------------------------------|
--------------------------------------------------------------------------------------|
--------------------------------------------------------------------------------------|
--------------------------------------------------------------------------------------|
---0-0--0-0--0-0--0-0------------------0-0--0-0--0-0--0-0-----------------------------|
---0-0--0-0--0-0--0-0------------------0-0--0-0--0-0--0-0-----------------------------|
   * *  * *  * *  * *                  * *  * *  * *  * *

--------------------------------------------------------------------------------------|
--------------------------------------------------------------------------------------|
--------------------------------------------------------------------------------------|
--------------------------------------------------------------------------------------|
---0-0--0-0--0-0--0-0------------------0-0--0-0--0-0--0-0---8*------------------------|
---0-0--0-0--0-0--0-0--<<<<<<<<<-------0-0--0-0--0-0--0-0-----------------------------|
   * *  * *  * *  * *                  * *  * *  * *  * *