Bullet For My Valentine - Hand Of Blood Chords & Tabs

 

Hand Of Blood Chords & Tabs

Bullet For My Valentine Chords & Tabs

Version: 6 Type: Tab 0 ratings
1 star 2 stars 3 stars 4 stars 5 stars
comments

Hand Of Blood Tab

Tuning:drop C

Intro:

D|-------------------------------------------------|
A|-------------------------------------------------|
F|-------------------------------------------------|
C|-0-14-15-0-12-14-0-10-12-0-8-10-0-7-8-7----------| x4
G|-------------------------------------------------|
C|-------------------------------------------------|

D|-------------------------------------------------|
A|-------------------------------------------------|
F|-------------------------------------------------|
C|-0-14-15-0-12-14-0-12-0-0-2-3-2-3----------------| x2
G|-0-14-15-0-12-14-0-12-0-0-2-3-2-3----------------|
C|-0-14-15-0-12-14-0-12-0-0-2-3-2-3----------------|

D|-------------------------------------------------|
A|-------------------------------------------------|
F|-------------------------------------------------|
C|-------------------------------------------------|
G|------10-----10------10-----10-----10------------|
C|--0-8----0-8----0-8-----0-8---0-8----------------|

D|-------------------------------------------------|
A|-------------------------------------------------|
F|-------------------------------------------------|
C|-------------------------------------------------|
G|-------12-------12-------0-0--19-0-20-0-19-------|
C|---0-10----0-10----0-10--------------------------|

Verse One: (There Goes My Valentine again...)
D|-------------------------------------------------|
A|-------------------------------------------------|
F|-------------------------------------------------|
C|--0--------3--------7----------------------------|
G|--0--------3--------7----------------------------|
C|--0--------3--------7----------------------------|

D|-------------------------------------------------|
A|-------------------------------------------------|
F|--------------10---------------------------------|
C|-0-0-00000-------------0-0-00000-------3---7-----| X4
G|-0-0-00000-------------0-0-00000-------3---7-----|
C|-0-0-00000-------------0-0-00000-------3---7-----|
pm......... pm........

bridge:
D|-------------------------------------------------|
A|-------------------------------------------------|
F|-------------------------------------------------|
C|-0-14-15-0-12-14-0-10-12-0-8-10-0-7-8-7----------| x4
G|-------------------------------------------------|
C|-------------------------------------------------|

chorus:
D|-------------------------------------------------|
A|-------------------------------------------------|
F|-------------------------------------------------|
C|-3--0--7--0--0000--------3--0--7--0--0000--------|
G|-3--0--7--0--0000--------3--0--7--0--0000--------|
C|-3--0--7--0--0000--------3--0--7--0--0000--------|
pm.... pm.....
D|-------------------------------------------------|
A|-------------------------------------------------|
F|-------------------------------------------------|
C|-------------------------------------------------|
G|------10-----10------10-----10-----10------------|
C|--0-8----0-8----0-8-----0-8---0-8----------------|

D|-------------------------------------------------|
A|-------------------------------------------------|
F|-------------------------------------------------|
C|-------------------------------------------------|
G|-------12-------12-------0-0--19-0-20-0-19-------|
C|---0-10----0-10----0-10--------------------------|

D|-------------------------------------------------|
A|-------------------------------------------------|
F|-------------------------------------------------|
C|-3--0--7--0--0000--------3--0--7--0--0000--------|
G|-3--0--7--0--0000--------3--0--7--0--0000--------|
C|-3--0--7--0--0000--------3--0--7--0--0000--------|
pm.... pm.....
D|-------------------------------------------------|
A|-------------------------------------------------|
F|-------------------------------------------------|
C|-------------------------------------------------|
G|------10-----10------10-----10-----10------------|
C|--0-8----0-8----0-8-----0-8---0-8----------------|

D|-------------------------------------------------|
A|-------------------------------------------------|
F|-------------------------------------------------|
C|-------------------------------------------------|
G|-------12-------12-------0-0--19-0-20-0-19-------|
C|---0-10----0-10----0-10--------------------------|

D|-------------------------------------------------|
A|-------------------------------------------------|
F|--------------10---------------------------------|
C|-0-0-00000-------------0-0-00000-------3---7-----| X4
G|-0-0-00000-------------0-0-00000-------3---7-----|
C|-0-0-00000-------------0-0-00000-------3---7-----|
pm......... pm........

bridge:
D|-------------------------------------------------|
A|-------------------------------------------------|
F|-------------------------------------------------|
C|-0-14-15-0-12-14-0-10-12-0-8-10-0-7-8-7----------| x4
G|-------------------------------------------------|
C|-------------------------------------------------|

chorus:
D|-------------------------------------------------|
A|-------------------------------------------------|
F|-------------------------------------------------|
C|-3--0--7--0--0000--------3--0--7--0--0000--------|
G|-3--0--7--0--0000--------3--0--7--0--0000--------|
C|-3--0--7--0--0000--------3--0--7--0--0000--------|
pm.... pm.....
D|-------------------------------------------------|
A|-------------------------------------------------|
F|-------------------------------------------------|
C|-------------------------------------------------|
G|------10-----10------10-----10-----10------------|
C|--0-8----0-8----0-8-----0-8---0-8----------------|

D|-------------------------------------------------|
A|-------------------------------------------------|
F|-------------------------------------------------|
C|-------------------------------------------------|
G|-------12-------12-------0-0--19-0-20-0-19-------|
C|---0-10----0-10----0-10--------------------------|

D|-------------------------------------------------|
A|-------------------------------------------------|
F|-------------------------------------------------|
C|-3--0--7--0--0000--------3--0--7--0--0000--------|
G|-3--0--7--0--0000--------3--0--7--0--0000--------|
C|-3--0--7--0--0000--------3--0--7--0--0000--------|
pm.... pm.....
D|-------------------------------------------------|
A|-------------------------------------------------|
F|-------------------------------------------------|
C|-------------------------------------------------|
G|------10-----10------10-----10-----10------------|
C|--0-8----0-8----0-8-----0-8---0-8----------------|

D|-------------------------------------------------|
A|-------------------------------------------------|
F|-------------------------------------------------|
C|-------------------------------------------------|
G|-------12-------12-------0-0--19-0-20-0-19-------|
C|---0-10----0-10----0-10--------------------------|


solo section:
D|-------------------------------------------------|
A|-------------------------------------------------|
F|-------------------14-12-9-----------------------|
C|-0-0-00000----12---15-14-10----------------------|
G|-0-0-00000---------------------------------------|
C|-0-0-00000---------------------------------------|
pm..........

shred bit:
D|-17-13--13-17-13-17-13--13-17-13-17-13-13bu(14)--|
A|------15--------------15-------------------------|
F|-------------------------------------------------|
C|-------------------------------------------------|
G|-------------------------------------------------|
C|-------------------------------------------------|

[ Tab from: http://www.guitartabs.cc/tabs/b/bullet_for_my_valentine/hand_of_blood_tab_ver_6.html ]
D|-------------------------------------------------|
A|-------------------------------------------------|
F|-----------------------14------------------------|
C|-14-15-14---14-15-14-17--------------------------|
G|----------15-------------------------------------|
C|-------------------------------------------------|

really cool harmony section:
D|-------------------------------------------------|
A|-------------------------------------------------|
F|-----9---10--9-10-9-12-10-9-10-------------------|
C|-8-8---8-----------------------------------------|
G|-------------------------------------------------|
C|-------------------------------------------------|

D|-------------------------------------------------|
A|-------------------------------------------------|
F|-----9---10--9-10-9-12-10-9-10-------------------|
C|-7-7---7-----------------------------------------|
G|-------------------------------------------------|
C|-------------------------------------------------|

D|-------------------------------------------------|
A|-------------------------------------------------|
F|-----9---10--9-10-9-12-10-9-10-------------------|
C|-8-8---8-----------------------------------------|
G|-------------------------------------------------|
C|-------------------------------------------------|

D|-------------------------------------------------|
A|---------------13-11-10--------------------------|
F|-----9---10-------------12-10-9------------------|
C|-7-7---7------------------------12-10------------|
G|-------------------------------------------------|
C|-------------------------------------------------|

1st Harmony (down 1 octave)
D|-------------------------------------------------|
A|-------------------------------------------------|
F|-------------------------------------------------|
C|-------------------------------------------------|
G|-----7---8------7-8-7-10-8-7-8-------------------|
C|-8-8---8-----------------------------------------|

D|-------------------------------------------------|
A|-------------------------------------------------|
F|-------------------------------------------------|
C|-------------------------------------------------|
G|-----7---8------7-8-7-10-8-7-8-------------------|
C|-7-7---7-----------------------------------------|

D|-------------------------------------------------|
A|-------------------------------------------------|
F|-------------------------------------------------|
C|-------------------------------------------------|
G|-----7---8------7-8-7-10-8-7-8-------------------|
C|-8-8---8-----------------------------------------|

D|-------------------------------------------------|
A|-------------------------------------------------|
F|-------------------------------------------------|
C|-----------------10-8-7--------------------------|
G|-----7---8--------------10-8-7-------------------|
C|-7-7---7-----------------------12-10-------------|

other harmony:
(you have to listen closely as this mixes wierdly with
the first one)
D|-------------------8-6-5-6-----------------------|
A|-------------------------------------------------|
F|-----5---7--5-7-5--------------------------------|
C|-8-8---8-----------------------------------------|
G|-------------------------------------------------|
C|-------------------------------------------------|

D|-------------------8-6-5-6-----------------------|
A|-------------------------------------------------|
F|-----5---7--5-7-5--------------------------------|
C|-7-7---7-----------------------------------------|
G|-------------------------------------------------|
C|-------------------------------------------------|

D|------------------8-6-5-6------------------------|
A|-------------------------------------------------|
F|-----5---7--5-7-5--------------------------------|
C|-8-8---8-----------------------------------------|
G|-------------------------------------------------|
C|-------------------------------------------------|

D|-----------------13-12-10------------------------|
A|--------------------------13-11-10---------------|
F|-----5---7-------------------------12-10---------|
C|-7-7---7-----------------------------------------|
G|-------------------------------------------------|
C|-------------------------------------------------|

bridge to chorus:
D|-------------------------------------------------|
A|-------------------------------------------------|
F|-10-9----12-9-----10-9-----12-9-----10-9-10-9----|
C|------10-------10-------10-------10--------------|
G|-------------------------------------------------|
C|-------------------------------------------------|

D|--------------------------------------------------|
A|----------------------------13-10-----------------|
F|-10-9----12-9-----10-9---------------10-9-10-9----|
C|------10-------10--------10-------10--------------|
G|--------------------------------------------------|
C|--------------------------------------------------|

D|--------------------------------------------------|
A|--------------------------------------------------|
F|-10-9----12-9-----10-9-----12-9-----10-9-10-9-----|
C|------10-------10-------10-------10---------------|
G|--------------------------------------------------|
C|--------------------------------------------------|

D|--------------------------------------------------|
A|----------13-10-----------------------------------|
F|-10-9---------------10-9------12-9------10-9-10-9-|
C|------10--------10--------10-------10-------------|
G|--------------------------------------------------|
C|--------------------------------------------------|

scream...
D|--------------------------------------------------|
A|--------------------------------------------------|
F|--------------------------------------------------|
C|-0-14-15-0-12-14-0-10-12-0-8-10-12\---------------|
G|-----------------------------------------12\------|
C|-----------------------------------------12\------|
slide down slowly
chorus:
D|-------------------------------------------------|
A|-------------------------------------------------|
F|-------------------------------------------------|
C|-3--0--7--0--0000--------3--0--7--0--0000--------|
G|-3--0--7--0--0000--------3--0--7--0--0000--------|
C|-3--0--7--0--0000--------3--0--7--0--0000--------|
pm.... pm.....
D|-------------------------------------------------|
A|-------------------------------------------------|
F|-------------------------------------------------|
C|-------------------------------------------------|
G|------10-----10------10-----10-----10------------|
C|--0-8----0-8----0-8-----0-8---0-8----------------|

D|-------------------------------------------------|
A|-------------------------------------------------|
F|-------------------------------------------------|
C|-------------------------------------------------|
G|-------12-------12-------0-0--19-0-20-0-19-------|
C|---0-10----0-10----0-10--------------------------|

D|-------------------------------------------------|
A|-------------------------------------------------|
F|-------------------------------------------------|
C|-3--0--7--0--0000--------3--0--7--0--0000--------|
G|-3--0--7--0--0000--------3--0--7--0--0000--------|
C|-3--0--7--0--0000--------3--0--7--0--0000--------|
pm.... pm.....
D|-------------------------------------------------|
A|-------------------------------------------------|
F|-------------------------------------------------|
C|-------------------------------------------------|
G|------10-----10------10-----10-----10------------|
C|--0-8----0-8----0-8-----0-8---0-8----------------|

D|-------------------------------------------------|
A|-------------------------------------------------|
F|-------------------------------------------------|
C|-------------------------------------------------|
G|-------12-------12-------0-0--19-0-20-0-19-------|
C|---0-10----0-10----0-10--------------------------|

end
D|-------------------------------------------------|
A|-------------------------------------------------|
F|-------------------------------------------------|
C|-0-0-00000---------------------------------------|
G|-0-0-00000---------------------------------------|
C|-0-0-00000---------------------------------------|
Comments