Bullet For My Valentine - Hand Of Blood Chords & Tabs

 

Hand Of Blood Chords & Tabs

Bullet For My Valentine Chords & Tabs

Version: 5 Type: Tab 0 ratings
1 star 2 stars 3 stars 4 stars 5 stars
comments

Hand Of Blood Tab

   
This is guitar 2 all the way thru, the tuning is drop C (CGCFAD).
I am pretty sure this is 100% (UPDATE: messed up on the chorus, tell me if n e otha stuff is wrong plz)

Intro:
Part 1
|--------------------------------|
|--------------------------------|
|--------------------------------|
|-0-14-15-0-12-14-0-10-12-0-9-10-|
|--------------------------------|
|--------------------------------|

Fill A
|---------|
|---------|
|---------|
|-0-7-9-7-|
|---------|
|---------|

Fill B
|----------------|
|----------------|
|----------------|
|-9h10p9h10p9h10-|
|----------------|
|----------------|

Fill C
|--------------------------------------------|
|--------------------------------------------|
|--------------------------------------------|
|-0-14-15-0-12-14-0-17-19-0-15-17-0-14-15-14-|
|--------------------------------------------|
|--------------------------------------------|

Order
Part 1 Fill A
Part 1 Fill B
Fill C
Part 1 nothing

|---------------------------|
|---------------------------|
|---------------------------|
|-0-0-0-3-5-0-0-0-0-2s3s2s2-|               x2
|-0-0-0-3-5-0-0-0-0-2s3s2s2-|
|-0-0-0-3-5-0-0-0-0-2s3s2s2-|
PM  . .
|--------------------------------------------------------------------------|
|--------------------------------------------------------------------------|
|--------------------------------------------------------------------------|
|------10----10----10----10----10-------12------12------12------12-14-15-14|
|--------------------------------------------------------------------------|
|--0-8---0-8---0-8---0-8---0-8-----0-10----0-10----0-10----0-10------------|
PM . .   . .   . .   . .   . .     .  .    .  .    .  .    .  .

|------------------------------------|
|------------------------------------|
|------------------------------------|
|-0~------3~-----------7~------------|
|-0~------3~-----------7~------------|
|-0~------3~-----------7~------------|

|-----------------------------------------|
|---------666666--------------------------|
|-----------------------------------------|             x4
|-0-0-000--------0-0-000-333-555----------|
|-0-0-000--------0-0-000-333-555----------|
|-0-0-000--------0-0-000-333-555----------|
PM. . ...        . . ...

Part 1 Fill A
Part 1 nothing
Part 1 Fill B
Part 1 SLIDE
|---------------------------|
|---------------------------|
|---------------------------|
|-3-0-7-0-000-3-0-7-0-000---|
|-3-0-7-0-000-3-0-7-0-000---|
|-3-0-7-0-000-3-0-7-0-000---|
PM        ...         ...

|--------------------------------------------------------------------------|
|--------------------------------------------------------------------------|
|--------------------------------------------------------------------------|
|------10----10----10----10----10-------12------12------12------12-14-15-14|
|--------------------------------------------------------------------------|
|--0-8---0-8---0-8---0-8---0-8-----0-10----0-10----0-10----0-10------------|
PM . .   . .   . .   . .   . .     .  .    .  .    .  .    .  .
|---------------------------|
|---------------------------|
|---------------------------|
|-3-0-7-0-000-3-0-7-0-000---|
|-3-0-7-0-000-3-0-7-0-000---|
|-3-0-7-0-000-3-0-7-0-000---|
PM        ...         ...

|--------------------------------------------------------------------------|
|--------------------------------------------------------------------------|
|--------------------------------------------------------------------------|
|------10----10----10----10----10-------12------12------12------12-14-15-14|
|--------------------------------------------------------------------------|
|--0-8---0-8---0-8---0-8---0-8-----0-10----0-10----0-10----0-10------------|
PM . .   . .   . .   . .   . .     .  .    .  .    .  .    .  .


|-----------------------------------------|
|---------666666--------------------------|
|-----------------------------------------|             x4
|-0-0-000--------0-0-000-333-555----------|
|-0-0-000--------0-0-000-333-555----------|
|-0-0-000--------0-0-000-333-555----------|
PM. . ...        . . ...

Part 1 Fill A
Part 1 nothing
Part 1 Fill B
Part 1 SLIDE
|---------------------------|
|---------------------------|
|---------------------------|
|-3-0-7-0-000-3-0-7-0-000---|
|-3-0-7-0-000-3-0-7-0-000---|
|-3-0-7-0-000-3-0-7-0-000---|
PM        ...         ...
[ Tab from: http://www.guitartabs.cc/tabs/b/bullet_for_my_valentine/hand_of_blood_tab_ver_5.html ]
|--------------------------------------------------------------------------|
|--------------------------------------------------------------------------|
|--------------------------------------------------------------------------|
|------10----10----10----10----10-------12------12------12------12-14-15-14|
|--------------------------------------------------------------------------|
|--8-8---8-8---8-8---8-8---8-8----10-10---10-10---10-10---10-10------------|
PM . .   . .   . .   . .   . .     .  .    .  .    .  .    .  .
|---------------------------|
|---------------------------|
|---------------------------|
|-3-0-7-0-000-3-0-7-0-000---|
|-3-0-7-0-000-3-0-7-0-000---|
|-3-0-7-0-000-3-0-7-0-000---|
PM        ...         ...

|--------------------------------------------------------------------------|
|--------------------------------------------------------------------------|
|--------------------------------------------------------------------------|
|------10----10----10----10----10-------12------12------12------12-14-15-14|
|--------------------------------------------------------------------------|
|--8-8---8-8---8-8---8-8---8-8----10-10---10-10---10-10---10-10------------|
PM . .   . .   . .   . .   . .     .  .    .  .    .  .    .  .

Backing to solo:
|-----------------------------------------|
|-----------------------------------------|
|-----------------------------------------|             x2
|-0-0-000--------0-0-000-333-555----------|
|-0-0-000--------0-0-000-333-555----------|
|-0-0-000--------0-0-000-333-555----------|
PM. . ...        . . ...

|-----------------------------------------|
|-----------------------------------------|
|-----------------------------------------|             x2
|-8-8-8-8-8-8-8-8-0-0-0-0-0-0-0-0---------|
|-8-8-8-8-8-8-8-8-0-0-0-0-0-0-0-0---------|
|-8-8-8-8-8-8-8-8-0-0-0-0-0-0-0-0---------|

|--------------------------------|
|--------------------------------|
|-------9-10b--9-10-9-12-10-9-10-|
|---0-0--------------------------|                x3
|--------------------------------|
|--------------------------------|
PM  . .
                                                    <<<
							
													
Comments