Bullet For My Valentine - Hand Of Blood Chords & Tabs

 

Hand Of Blood Chords & Tabs

Bullet For My Valentine Chords & Tabs

Version: 3 Type: Tab 0 ratings
1 star 2 stars 3 stars 4 stars 5 stars
comments

Hand Of Blood Tab

   
HAND OF BLOOD
Bullet For My Valentine
BULLET FOR MY VALENTINE EP

|----------------------|--------------------|
|----------------------|--------------------|
|----------------------|--------------------|
|-0-14-15-0-12-14-0-10-|-12-0-8-10-0-7h10p7-|
|----------------------|--------------------|
|----------------------|--------------------|
|
| Gtr II
|----------------------|--------------------|
|----------------------|--------------------|
|----------------------|--------------------|
|-0--7--8-0--5--7-0--3-|--5-0-2--3-0-2h=5p2-|
|----------------------|--------------------|
|----------------------|--------------------|


|----------------------|--------------------|
|----------------------|--------------------|
|----------------------|--------------------|
|-0-14-15-0-12-14-0-10-|-12-0-8-10-7tr10----|
|----------------------|--------------------|
|----------------------|--------------------|
|
|----------------------|--------------------|
|----------------------|--------------------|
|----------------------|--------------------|
|-0--7--8-0--5--7-0--3-|--5-0-2--3-2tr5-----|
|----------------------|--------------------|
|----------------------|--------------------|


|----------------------|-----------------------|
|----------------------|-----------------------|
|----------------------|-----------------------|
|-0-14-15-0-12-14-0-17-|-19-0-19-20-0-15h17p15-|
|----------------------|-----------------------|
|----------------------|-----------------------|
|
|----------------------|-----------------------|
|----------------------|-----------------------|
|----------------------|-----------------------|
|-0--7--8-0--5--7-0--3-|--5-0--2--3-0--2h=5p=2-|
|----------------------|-----------------------|
|----------------------|-----------------------|


|----------------------|---------------|
|----------------------|---------------|
|----------------------|---------------|
|-0-14-15-0-12-14-0-10-|-12-0-8-10-----|
|----------------------|---------------|
|----------------------|---------------|
|
|----------------------|---------------|
|----------------------|---------------|
|----------------------|---------------|
|-0--7--8-0--5--7-0--3-|--5-0-2--3-----|
|----------------------|---------------|
|----------------------|---------------|


  N.C.              E5             F5E5F5
|---------------------|------------------|
|---------------------|------------------|
|---------------------|------------------|
|---------------------|------------------|
|-------------------2-|-(2)-2--2-2-3-2-3-|
|-0-14-15-0-12-14-0-2-|-(2)-2--2-2-3-2-3-|
|
|---------------------|------------------|
|---------------------|------------------|
|---------------------|------------------|
|---------------------|------------------|
|-------------------2-|-(2)-2--2-2-3-2-3-|
|-0--7--8-0--5--7-0-2-|-(2)-2--2-2-3-2-3-|


  N.C.              E5             F5E5F5
|---------------------|------------------|
|---------------------|------------------|
|---------------------|------------------|
|---------------------|------------------|
|-------------------2-|-(2)-2--2-2-3-2-3-|
|-0-14-15-0-12-14-0-2-|-(2)-2--2-2-3-2-3-|
|
|---------------------|------------------|
|---------------------|------------------|
|---------------------|------------------|
|---------------------|------------------|
|-------------------2-|-(2)-2--2-2-3-2-3-|
|-0--7--8-0--5--7-0-2-|-(2)-2--2-2-3-2-3-|


  N.C.
  Gtrs I, II
  PM|    PM|    PM|      PM|    PM|    PM-
|-------------------|--------------------|
|-------------------|--------------------|
|-------------------|--------------------|
|-----10-----10-----|-10-----10-----10---|
|-------------------|--------------------|
|-0-8----0-8----0-8-|----0-8----0-8----0-|


 ---|     PM|     PM|       PM           ~~
|----------------------|--------------------|
|----------------------|--------------------|
|----------------------|--------------------|
|------12------12------|-12---12-14-15--14--|
|----------------------|--------------------|
|-0-10----0-10----0-10-|----0---------------|


 Pre-Verse
  D5                      F5                      A5
|----------|------------|----------|------------|----------|--------|
|----------|------------|----------|------------|----------|--------|
|----------|------------|----------|------------|----------|--------|
|----------|------------|----------|------------|----------|--------|
|-0--------|-(0)--------|-3--------|-(3)--------|-7--------|-(7)----|
|-0--------|-(0)--------|-3--------|-(3)--------|-7--------|-(7)----|


   Verse
    D5
    Gtr I
    PM-------------|  TP   TP
||----------------------|-------|
||o---------------------|-------|
||-------------------10-|-10----|
||----------------------|-------|
||o-0-(0)-0--0-0-0-0----|-------|
||--0-(0)-0--0-0-0-0----|-------|
|
|   Gtr II
|   PM-------------|  TP   TP
||----------------------|-------|
||o---------------------|-------|
||--------------------7-|--7----|
||----------------------|-------|
||o-0-(0)-0--0-0-0-0----|-------|
||--0-(0)-0--0-0-0-0----|-------|


  D5               F5          A5
  Gtrs I, II
  PM-------------|
                                         4x
|--------------------|-------------------||
|--------------------|------------------o||
|--------------------|-------------------||
|--------------------|-------------------||
|-0-(0)-0--0-0-0-0-3-|-(3)-3-3-7--7-7-7-o||
|-0-(0)-0--0-0-0-0-3-|-(3)-3-3-7--7-7-7--||


 Pre-Chorus
  N.C.
  Gtr I
|----------------------|--------------------|
|----------------------|--------------------|
|----------------------|--------------------|
|-0-14-15-0-12-14-0-10-|-12-0-8-10-0-7h10p7-|
|----------------------|--------------------|
|----------------------|--------------------|
|
| Gtr II
|----------------------|--------------------|
|----------------------|--------------------|
|----------------------|--------------------|
|-0--7--8-0--5--7-0--3-|--5-0-2--3-0-2h=5p2-|
|----------------------|--------------------|
|----------------------|--------------------|


|----------------------|---------------|
|----------------------|---------------|
|----------------------|---------------|
|-0-14-15-0-12-14-0-10-|-12-0-8-10-----|
|----------------------|---------------|
|----------------------|---------------|
|
|----------------------|---------------|
|----------------------|---------------|
|----------------------|---------------|
|-0--7--8-0--5--7-0--3-|--5-0-2--3-----|
|----------------------|---------------|
|----------------------|---------------|


|----------------------|--------------------|
|----------------------|--------------------|
|----------------------|--------------------|
|-0-14-15-0-12-14-0-10-|-12-0-8-10-7tr10----|
|----------------------|--------------------|
|----------------------|--------------------|
|
|----------------------|--------------------|
|----------------------|--------------------|
|----------------------|--------------------|
|-0--7--8-0--5--7-0--3-|--5-0-2--3-2tr5-----|
|----------------------|--------------------|
|----------------------|--------------------|


|----------------------|---------------|
|----------------------|---------------|
|----------------------|---------------|
|-0-14-15-0-12-14-0-10-|-12-0-8-10-----|
|----------------------|---------------|
|----------------------|---------------|
|
|----------------------|---------------|
|----------------------|---------------|
|----------------------|---------------|
|-0--7--8-0--5--7-0--3-|--5-0-2--3-----|
|----------------------|---------------|
|----------------------|---------------|


   Chorus
    F5  D5  A5       D5              F5  D5  A5       D5
    Gtrs I, II
                     PM----------|                    PM----------|
||-------------|-------------------|------------|--------------------|
||o------------|-------------------|------------|--------------------|
||-------------|-------------------|------------|--------------------|
||-------------|-------------------|------------|--------------------|
||o-3---0---7--|-(7)-0-0-0-0-0-0-0-|-3---0---7--|-(7)-0-0-0-0-0-0-0--|
||--3---0---7--|-(7)-0-0-0-0-0-0-0-|-3---0---7--|-(7)-0-0-0-0-0-0-0--|


  N.C.
  PM|    PM|    PM|      PM|    PM|    PM-
|-------------------|--------------------|
|-------------------|--------------------|
|-------------------|--------------------|
|-----10-----10-----|-10-----10-----10---|
|-------------------|--------------------|
|-0-8----0-8----0-8-|----0-8----0-8----0-|


 ---|     PM|     PM|       PM           ~~
|----------------------|---------------------||
|----------------------|--------------------o||
|----------------------|---------------------||
|------12------12------|-12---12-14-15--14---||
|----------------------|--------------------o||
|-0-10----0-10----0-10-|----0----------------||


   Verse
    D5
    Gtr I
    PM-------------|  TP   TP
||----------------------|-------|
||o---------------------|-------|
||-------------------10-|-10----|
||----------------------|-------|
||o-0-(0)-0--0-0-0-0----|-------|
||--0-(0)-0--0-0-0-0----|-------|
|
|   Gtr II
|   PM-------------|  TP   TP
||----------------------|-------|
||o---------------------|-------|
||--------------------7-|--7----|
||----------------------|-------|
||o-0-(0)-0--0-0-0-0----|-------|
||--0-(0)-0--0-0-0-0----|-------|


  D5               F5          A5
  Gtrs I, II
  PM-------------|
                                         4x
|--------------------|-------------------||
|--------------------|------------------o||
|--------------------|-------------------||
|--------------------|-------------------||
|-0-(0)-0--0-0-0-0-3-|-(3)-3-3-7--7-7-7-o||
|-0-(0)-0--0-0-0-0-3-|-(3)-3-3-7--7-7-7--||


 Pre-Chorus
  N.C.
  Gtr I
|----------------------|--------------------|
|----------------------|--------------------|
|----------------------|--------------------|
|-0-14-15-0-12-14-0-10-|-12-0-8-10-0-7h10p7-|
|----------------------|--------------------|
|----------------------|--------------------|
|
| Gtr II
|----------------------|--------------------|
|----------------------|--------------------|
|----------------------|--------------------|
|-0--7--8-0--5--7-0--3-|--5-0-2--3-0-2h=5p2-|
|----------------------|--------------------|
|----------------------|--------------------|


|----------------------|---------------|
|----------------------|---------------|
|----------------------|---------------|
|-0-14-15-0-12-14-0-10-|-12-0-8-10-----|
|----------------------|---------------|
|----------------------|---------------|
|
|----------------------|---------------|
|----------------------|---------------|
|----------------------|---------------|
|-0--7--8-0--5--7-0--3-|--5-0-2--3-----|
|----------------------|---------------|
|----------------------|---------------|


|----------------------|--------------------|
|----------------------|--------------------|
|----------------------|--------------------|
|-0-14-15-0-12-14-0-10-|-12-0-8-10-7tr10----|
|----------------------|--------------------|
|----------------------|--------------------|
|
|----------------------|--------------------|
|----------------------|--------------------|
|----------------------|--------------------|
|-0--7--8-0--5--7-0--3-|--5-0-2--3-2tr5-----|
|----------------------|--------------------|
|----------------------|--------------------|


|----------------------|---------------|
|----------------------|---------------|
|----------------------|---------------|
|-0-14-15-0-12-14-0-10-|-12-0-8-10-----|
|----------------------|---------------|
|----------------------|---------------|
|
|----------------------|---------------|
|----------------------|---------------|
|----------------------|---------------|
|-0--7--8-0--5--7-0--3-|--5-0-2--3-----|
|----------------------|---------------|
|----------------------|---------------|


   Chorus
    F5  D5  A5       D5              F5  D5  A5       D5
    Gtrs I, II
                     PM----------|                    PM----------|
||-------------|-------------------|------------|--------------------|
||o------------|-------------------|------------|--------------------|
||-------------|-------------------|------------|--------------------|
||-------------|-------------------|------------|--------------------|
||o-3---0---7--|-(7)-0-0-0-0-0-0-0-|-3---0---7--|-(7)-0-0-0-0-0-0-0--|
||--3---0---7--|-(7)-0-0-0-0-0-0-0-|-3---0---7--|-(7)-0-0-0-0-0-0-0--|


  N.C.
  PM|    PM|    PM|      PM|    PM|    PM-
|-------------------|--------------------|
|-------------------|--------------------|
|-------------------|--------------------|
|-----10-----10-----|-10-----10-----10---|
|-------------------|--------------------|
|-0-8----0-8----0-8-|----0-8----0-8----0-|

[ Tab from: http://www.guitartabs.cc/tabs/b/bullet_for_my_valentine/hand_of_blood_tab_ver_3.html ]
 ---|     PM|     PM|       PM           ~~
|----------------------|---------------------||
|----------------------|--------------------o||
|----------------------|---------------------||
|------12------12------|-12---12-14-15--14---||
|----------------------|--------------------o||
|-0-10----0-10----0-10-|----0----------------||


 Guitar Solo
  D5
  Gtr I
  PM-------------|   ~~~~~~~~~
|----------------------|-------------|
|----------------------|-------------|
|----------------------|-------------|
|------------------/12-|-(12)--------|
|-0-(0)-0--0-0-0-0-----|-------------|
|-0-(0)-0--0-0-0-0-----|-------------|
|
| Gtr II
| PM-------------|
|----------------------|-------------|
|----------------------|-------------|
|----------------------|-------------|
|----------------------|-------------|
|-0-(0)-0--0-0-0-0-----|-------------|
|-0-(0)-0--0-0-0-0-----|-------------|


|-----------------------|---------------------|
|-----------------------|---------------------|
|-----------------------|---------------------|
|-15--------14----------|---------------------|
|--------------------15-|-(15)----------------|
|-----------------------|---------------------|
|
|  PM--------------|
|-----------------------|---------------------|
|-----------------------|---------------------|
|-----------------------|---------------------|
|-----------------------|---------------------|
|--0-(0)-0---0-0-0-0--3-|--(3)-3-3-7--7-7-7---|
|--0-(0)-0---0-0-0-0--3-|--(3)-3-3-7--7-7-7---|


|-17p13--------17p13-17p13-------17p13-17p13-------|
|-------15p=13-------------15p13-------------15p13-|
|--------------------------------------------------|
|--------------------------------------------------|
|--------------------------------------------------|
|--------------------------------------------------|
|
|  PM----------------------------------|
|--------------------------------------------------|
|--------------------------------------------------|
|--------------------------------------------------|
|--------------------------------------------------|
|--0----(0)-----0-----------0--0--0-----0----------|
|--0----(0)-----0-----------0--0--0-----0----------|


                                         F5           A5
                                               ~~~
|--------------|----------------------------|------------------|
|-18-----------|----------------------------|------------------|
|-20b22--------|-----------12------------12-|-14---------------|
|--------------|----12--15----15---12-15----|------------------|
|--------------|-15-------------------------|------------------|
|--------------|----------------------------|------------------|
|
|                 PM------------------|
|--------------|----------------------------|------------------|
|--------------|----------------------------|------------------|
|--------------|----------------------------|------------------|
|--------------|----------------------------|------------------|
|--------------|--0-(0)--0-----0-0--0--0--3-|-(3)-3-3-7--7-7-7-|
|--------------|--0-(0)--0-----0-0--0--0--3-|-(3)-3-3-7--7-7-7-|


 Interlude
  Bb5
|-------------------|---------------------------|
|-------------------|---------------------------|
|-------------------|---------------12----------|
|-12-12-14-12-15----|-(15)-15-14-15----15-14-15-|
|-------------------|---------------------------|
|-------------------|---------------------------|
|
|  PM--------------------------------------------
|-------------------|---------------------------|
|-------------------|---------------------------|
|-------------------|---------------------------|
|-------------------|---------------------------|
|--8--8--8--8--8----|--(8)----------------------|
|--8--8--8--8--8----|--(8)----------------------|


  D5
|-------------------|---------------------------|
|-------------------|---------------------------|
|-------------------|---------------12----------|
|-12-12-14-12-15----|-(15)-15-14-15----15-14-15-|
|-------------------|---------------------------|
|-------------------|---------------------------|
|
|---------------------|
|-------------------|---------------------------|
|-------------------|---------------------------|
|-------------------|---------------------------|
|-------------------|---------------------------|
|-12-12-12-12-12----|-(12)----------------------|
|-12-12-12-12-12----|-(12)----------------------|


  Bb5
|-------------------|---------------------------|
|-------------------|---------------------------|
|-------------------|---------------12----------|
|-12-12-14-12-15----|-(15)-15-14-15----15-14-15-|
|-------------------|---------------------------|
|-------------------|---------------------------|
|
|  PM--------------------------------------------
|-------------------|---------------------------|
|-------------------|---------------------------|
|-------------------|---------------------------|
|-------------------|---------------------------|
|--8--8--8--8--8----|--(8)----------------------|
|--8--8--8--8--8----|--(8)----------------------|


  D5                       D5
|-------------------|---------------------------|
|-------------------|---------------------------|
|-------------------|--17--15-14----------------|
|-12-12-14-12-15----|------------17-15-14-------|
|-------------------|---------------------17-15-|
|-------------------|---------------------------|
|
|---------------------|
|-------------------|---------------------------|
|-------------------|---------------------------|
|-------------------|---------------------------|
|-------------------|---------------------------|
|-12-12-12-12-12----|-(12)--0--0--0--0--0--0--0-|
|-12-12-12-12-12----|-(12)--0--0--0--0--0--0--0-|


    Bb5
||--------------------|---------------------------|
||o-------------------|---------------------------|
||--------------------|---------------12----------|
||--12-12-14-12-15----|-(15)-15-14-15----15-14-15-|
||o-------------------|---------------------------|
||--------------------|---------------------------|
|
|    PM--------------------------------------------
||--------------------|---------------------------|
||o-------------------|---------------------------|
||--------------------|---------------------------|
||--------------------|---------------------------|
||o--8--8--8--8--8----|--(8)----------------------|
||---8--8--8--8--8----|--(8)----------------------|


  D5
|-------------------|----------------------------|
|-------------------|----------------------------|
|-------------------|---------------12-----------|
|-12-12-14-12-15----|-(15)-15-14-15----15-14-15--|
|-------------------|----------------------------|
|-------------------|----------------------------|
|
|---------------------|
|-------------------|----------------------------|
|-------------------|----------------------------|
|-------------------|----------------------------|
|-------------------|----------------------------|
|-12-12-12-12-12----|-(12)-----------------------|
|-12-12-12-12-12----|-(12)-----------------------|


  Bb5
|-------------------|---------------------------|
|-------------------|---------------------------|
|-------------------|---------------12----------|
|-12-12-14-12-15----|-(15)-15-14-15----15-14-15-|
|-------------------|---------------------------|
|-------------------|---------------------------|
|
|  PM--------------------------------------------
|-------------------|---------------------------|
|-------------------|---------------------------|
|-------------------|---------------------------|
|-------------------|---------------------------|
|--8--8--8--8--8----|--(8)----------------------|
|--8--8--8--8--8----|--(8)----------------------|


  D5
|-------------------|----------------------------||
|-------------------|---------------------------o||
|-------------------|--17--15-14-----------------||
|-12-12-14-12-15----|------------17-15-14--------||
|-------------------|---------------------17-15-o||
|-------------------|----------------------------||
|
|---------------------|
|-------------------|----------------------------||
|-------------------|---------------------------o||
|-------------------|----------------------------||
|-------------------|----------------------------||
|-12-12-12-12-12----|-(12)----------------------o||
|-12-12-12-12-12----|-(12)-----------------------||


  Bb5
  Gtr I
|-----------------------|-------------------------|
|-----------------------|-------------------------|
|-----------------------|-------------------------|
|-15-14-0-17-15-0-15-14-|--0--17-15-0-15-14-15-14-|
|-----------------------|-------------------------|
|-----------------------|-------------------------|
|
| Gtr II
|  PM----------------------------------------------
|-----------------------|-------------------------|
|-----------------------|-------------------------|
|-----------------------|-------------------------|
|-----------------------|-------------------------|
|--8--8-8--8--8---------|-(8)---------------------|
|--8--8-8--8--8---------|-(8)---------------------|


  D5
|-----------------------|-------------------------|
|-----------------------|-------------------------|
|-----------------------|-------------------------|
|-15-14-0-17-15-0-22-19-|--0--17-15-0-15-14-17-14-|
|-----------------------|-------------------------|
|-----------------------|-------------------------|
|
|-------------------------|
|-----------------------|-------------------------|
|-----------------------|-------------------------|
|-----------------------|-------------------------|
|-----------------------|-------------------------|
|--0--0-0--0--0---------|-(0)---------------------|
|--0--0-0--0--0---------|-(0)---------------------|


  Bb5
|-----------------------|-------------------------|
|-----------------------|-------------------------|
|-----------------------|-------------------------|
|-15-14-0-17-15-0-15-14-|--0--17-15-0-15-14-15-14-|
|-----------------------|-------------------------|
|-----------------------|-------------------------|
|
|  PM----------------------------------------------
|-----------------------|-------------------------|
|-----------------------|-------------------------|
|-----------------------|-------------------------|
|-----------------------|-------------------------|
|--8--8-8--8--8---------|-(8)---------------------|
|--8--8-8--8--8---------|-(8)---------------------|


  D5
|-----------------------|-------------------------|
|-----------------------|-------------------------|
|-----------------------|-------------------------|
|-15-14-0-17-15-0-22-19-|--0--17-15-0-15-14-17-14-|
|-----------------------|-------------------------|
|-----------------------|-------------------------|
|
|----------------------------------------------|
|-----------------------|-------------------------|
|-----------------------|-------------------------|
|-----------------------|-------------------------|
|-----------------------|-------------------------|
|--0--0-0--0--0---------|-(0)--0--0-0--0--0--0--0-|
|--0--0-0--0--0---------|-(0)--0--0-0--0--0--0--0-|


 Pre-Chorus
  N.C.
  Gtr I
|----------------------|---------------|
|----------------------|---------------|
|----------------------|---------------|
|-0-14-15-0-12-14-0-10-|-12-0-8-10-----|
|----------------------|---------------|
|----------------------|---------------|
|
| Gtr II
|----------------------|---------------|
|----------------------|---------------|
|----------------------|---------------|
|-0--7--8-0--5--7-0--3-|--5-0-2--3-----|
|----------------------|---------------|
|----------------------|---------------|


   Out-Chorus
    F5  D5  A5       D5              F5  D5  A5       D5
    Gtrs I, II
                     PM----------|                    PM----------|
||-------------|-------------------|------------|--------------------|
||o------------|-------------------|------------|--------------------|
||-------------|-------------------|------------|--------------------|
||-------------|-------------------|------------|--------------------|
||o-3---0---7--|-(7)-0-0-0-0-0-0-0-|-3---0---7--|-(7)-0-0-0-0-0-0-0--|
||--3---0---7--|-(7)-0-0-0-0-0-0-0-|-3---0---7--|-(7)-0-0-0-0-0-0-0--|


  PM|    PM|    PM|      PM|    PM|    PM----|     PM|     PM|
|-------------------|--------------------|----------------------|
|-------------------|--------------------|----------------------|
|-------------------|--------------------|----------------------|
|-----10-----10-----|-10-----10-----10---|------12------12------|
|-------------------|--------------------|----------------------|
|-0-8----0-8----0-8-|----0-8----0-8----0-|-0-10----0-10----0-10-|


     PM           ~~     PM---------------|
|---------------------||----------------------*|
|--------------------o||----------------------*|
|---------------------||----------------------*|
|-12---12-14-15--14---||----------------------*|
|--------------------o||-0-(0)-0--0-0-0-0-0---*|
|----0----------------||-0-(0)-0--0-0-0-0-0---*|
Comments