Bullet For My Valentine - Four Words To Choke Upon Chords & Tabs

 

Four Words To Choke Upon Chords & Tabs

Bullet For My Valentine Chords & Tabs

Version: 1 Type: Tab 0 ratings
1 star 2 stars 3 stars 4 stars 5 stars
comments

Four Words To Choke Upon Tab

Sorry this is only the intro i just bought the single
the rest of TAB is in progress and should be completed soon for now
Enjoy this perfect version of the intro

Bullet For My Valentine-Four Words (to choke upon)

Intro

E------15---15-15--15-----16-----16--16---|
B-13-13---13-----13---13-13--13-13--13----|
G-----------------------------------------| X3
D-----------------------------------------|
A-----------------------------------------|
E-----------------------------------------|
[ Tab from: http://www.guitartabs.cc/tabs/b/bullet_for_my_valentine/four_words_to_choke_upon_tab.html ]
E------15-----15--15------18-----18--18---|
B-13-13--13-13--13---13-13--13-13--13-----|
G-----------------------------------------|
D-----------------------------------------|
A-----------------------------------------|
E-----------------------------------------|

E------15---15-15--15-----16-----16--16---|
B-13-13---13-----13---13-13--13-13--13----|
G-----------------------------------------| X3
D-----------------------------------------|
A-----------------------------------------|
E-----------------------------------------|

E------15-----15--15------18-----18--18---|
B-13-13--13-13--13---13-13--13-13--13-----|
G-----------------------------------------|
D-----------------------------------------|
A-----------------------------------------|
E-----------------------------------------|

By mickyman505
Comments