Bullet For My Valentine - Curses Chords & Tabs

 

Curses Chords & Tabs

Bullet For My Valentine Chords & Tabs

Version: 2 Type: Tab 0 ratings
1 star 2 stars 3 stars 4 stars 5 stars
comments

Curses Tab

   
-------------------------------------------------------------------------------------------------------
                                 'CURSES'  By Bullet for my valentine
-------------------------------------------------------------------------------------------------------

tabbed by Ben

under_dose95@yahoo.com

Okay dis tab is pretty straightforward although u might find the riff at the end a bit
tricky but the main thing to do if u get stuck is to play it over and over. It's not
100% perfect but it close. Im still not sure of the harmonics either. Also ive got
feelin some of u might think da chorus is wrong but I assure u dat if u play it to
speed it fits perfectly. Enjoy!

| /  slide up
| \  slide down
| h  hammer-on
| p  pull-off
| ~  vibrato
| +  harmonic
| x  Mute note

Tuning: CGDGBE

Intro

E|-----------------------------------------------------------------|
B|-----------------------------------------------------------------|
G|------8-----8---7-----7---7---7h8--------8-----8---7----7--10-7--|
D|--------8---------8------------------------8---------8----------8|
G|----8-----8---8-----8---8---8---------8------8---8-----8--8------|
C|--8---------------------------------8----------------------------|

E|----------------------------------------------------------------------|
B|----------------------------------------------------------------------|
G|------8-----8---7-----7---7--7h8--------8-----10----8---10----12--12\8|
D|--------8---------8--------------------10-----12----------------------|
G|---0------0---0-----0---0---0--------0------0---------------0---------|
C|-0---------------------------------0------0-------0---0----0-----0----|

============================================================================

                  repeat the intro three times
         (or four times if u hav the new edited version)
         
============================================================================

E|--------------------------------------|
B|--------------------------------------|
G|-------8-----8---7--------8-----8---10|
D|---------8------------------8---------|
G|----8------8---8-------8------8---8---|
C|--8------------------8----------------|

E|-------------------------|------|-----------------------------|
B|-------------------------|      |-------3-------3-------3-----|
G|-------8----8------------|      |-----3---3-------3-------3---|
D|---------8----8----------| x2   |-----------------------------|
G|----0------0----0--------|      |--3---------3-------3-------3|
C|--0----------------7h8-8-|------|-----------------------------|

E|---------------------------|
B|---------------------------|
G|-----2h3p2----2---2--------|
D|----------------3----------|
G|--0------------------------|
C|-----------3---------3/5-5-|

============================================================================

                       repeat that section once


1st guitarist

E|------------------------------------------|
B|------------------------------------------|
G|-------8-----7----8----7-----8----7-----8-|
D|---------8-----8----8----8-----8----8-----|      x2
G|----0------0-----0----0----0-----0----0---|
C|--0---------------------------------------|

2nd guitarist enters just before the 1st guitarist repeats himself

E|------------------------------------------|
B|------------------------------------------|
G|------------------------------------------|
D|------------------------------------------|
G|--0--00-----------------------------------|
C|--0--00-----------------------------------|

Both guitarists

E|---------------------------------------|---------------------------------|
B|---------------------------------------|---------------------------------|
G|--888-xxx-8x-7777-xx----888-xxx-78-----|-5555-xxx-5x-555--5555-xxx-5x-555|
D|--888-xxx-8x-8888-xx----888-xxx-88-8-10|-5555-xxx-5x-555--5555-xxx-5x-555|
G|--888-xxx-8x-8888-xx----888-xxx-88-8-10|-5555-xxx-5x-555--5555-xxx-5x-555|
C|--888-xxx-8x-8888-xx----888-xxx-88-----|---------------------------------|

x3

on the third time it changes slightly:
[ Tab from: http://www.guitartabs.cc/tabs/b/bullet_for_my_valentine/curses_tab_ver_2.html ]
E|---------------------------------------|-------------------------------|
B|---------------------------------------|-------------------------------|
G|--888-xxx-8x-7777-xx----888-xxx-78-----|-(88888888-77777777-88888888)--|
D|--888-xxx-8x-8888-xx----888-xxx-88-8-10|-(88888888-88888888-88888888)--|
G|--888-xxx-8x-8888-xx----888-xxx-88-8-10|-------------------------------|
C|--888-xxx-8x-8888-xx----888-xxx-88-----|-------------------------------|

E|---------------------------------------|
B|---------------------------------------|
G|--10-10-10-10-10-10-10-10--------------|
D|---8--8--8--8--8--8--8--8--------------|
G|---------------------------------------|
C|---------------------------------------|


============================================================================
CHORUS:

E|-------------------------|-----------------------------------------------|
B|----------------         |-----------------------------------------------|
G|----------------         |-----5p3----5p3------5p3-----2h3p2-----3p2-----|
D|----------------   x2    |--3x-----33------------------------------------|
G|--0x-00--00-1111         |--3x-----33-----(1-2)------0--------3------3-5-|
C|--0x-00--00-1111---------|------------------------------------3------3-5-|

x2



E|-----------------------------------------------------------------|
B|-----------------------------------------------------------------|
G|-----------------------------------------------------------------|
D|------------55/7-77-7/9-99------------55-5\4-44-2222-------------|
G|--44-xx-0-------------------44-xx-0------------------------------|
C|--44-xx-0-------------------44-xx-0------------------------------|

E|-------------------|
B|-------------------|
G|-------------------|
D|-------------------|
G|-0-(00)-0-(000)--0-|
C|-0-(00)-0-(000)--0-|

Just before the 1st guitarist repeats himself the 2nd guitarist enters

E|----------------|
B|----------------|
G|----------------|
D|----------------|
G|--(00)-0--------|
C|--(00)-0--------|

As the 2nd guitar is fading out the first guitarist continues:

E|--------------------|
B|--------------------|
G|------(8)-----(7)---|
D|----(8)-(8)-(8)-(8)-|
G|--(0)-----(0)-------|
C|--------------------|

Both guitarists

E|-------------|
B|-------------|
G|-------------|
D|-------------|
G|--(0000000)--|
C|--(0000000)--|

============================================================================
                          Repeat the chorus

============================================================================

After the chorus Bullet ends it with a kick ass riff to finish it off

1st guitarist

E|------------------------------------------------------------------------|
B|------------------------------------------------------------------------|
G|------------------------------------------------------------------------|
D|------------------------------------------------------------------------|
G|-------6----5----3----6----5-----3h5-3h5--------------6-5-0-3h5-----3+--|
C|--(0-0)--(0)--(0)--(0)--(0)--(0)----------(000-0-0-0)-----------(00)----|


E|------------------------------------------------------------------------|
B|------------------------------------------------------------------------|
G|------------------------------------------------------------------------|
D|------------------------------------------------------------------------|
G|--------------6-5-3-0-3h5-(5-6-5-3h5)-------------6-5-0-3h5-3h5---------|
C|--(000-0-0-0)-------------------------(000-0-0-0)-----------------------|

2nd guitarist pretty much does the same but there r a few changes to fit in wiv da harmony

2nd guitarist

E|------------------------------------------------------------------------|
B|------------------------------------------------------------------------|
G|------------------------------------------------------------------------|
D|------------------------------------------------------------------------|
G|-------6----5----3----6----5-----0h1-0h1--------------6-5-0-3h5-----3+--|
C|--(0-0)--(0)--(0)--(0)--(0)--(0)----------(000-0-0-0)-----------(00)----|


E|------------------------------------------------------------------------|
B|------------------------------------------------------------------------|
G|------------------------------------------------------------------------|
D|------------------------------------------------------------------------|
G|--------------6-5-3-0-3h5-(5-6-5-3h5)-------------6-5-0-0h1-0h1---------|
C|--(000-0-0-0)-------------------------(000-0-0-0)-----------------------|
Comments