Bullet For My Valentine - Cries In Vain Chords & Tabs

 

Cries In Vain Chords & Tabs

Bullet For My Valentine Chords & Tabs

Version: 2 Type: Tab 0 ratings
1 star 2 stars 3 stars 4 stars 5 stars
comments

Cries In Vain Tab

Bullet For My Valentine - Cries in Vain

i am in drop D tuning even though Bullet play Drop C so sorry.

* - palm Mute
> - slide
< - slide

palm muted with wah:

----------------------------------------------------------------|
----------------------------------------------------------------|
-0-0-3-0-2-------0-0-3-0-2-------0-0-3-0-2-------0-3-5-0-2-3----|
-----------0-3-5-----------0-3-5-----------0-3-5----------------|
----------------------------------------------------------------|
----------------------------------------------------------------|
 * * * * * * * * * * * * * * * * * * * * * * * * * * * * * *

[ Tab from: http://www.guitartabs.cc/tabs/b/bullet_for_my_valentine/cries_in_vain_tab_ver_2.html ]
----------------------------------------------------------------|
----------------------------------------------------------------|
---------3-2---5-3-2---2-3--------------------------------------|
-1-1-1-1-----3------3-------------------------------------------|
-1-1-1-1--------------------------------------------------------|  x2
-1-1-1-1--------------------------------------------------------|
 * * *
----------------------------------------------------------------|
----------------------------------------------------------------|
---------3-2---5-3-2---2-3--------------------------------------|
-0-0-0-0-----3------3-------------------------------------------|
-0-0-0-0--------------------------------------------------------|  x2
-0-0-0-0--------------------------------------------------------|
 * * *


----------------------------------------------------------------|
----------------------------------------------------------------|
---------3-2---5-3-2---2-3--------------------------------------|
-1-1-1-1-----3------3-------------------------------------------|
-1-1-1-1--------------------------------------------------------|  x2
-1-1-1-1--------------------------------------------------------|
 * * *
----------------------------------------------------------------|
----------------------------------------------------------------|
---------3-2---5-3-2---2-3--------------------------------------|
-0-0-0-0-----3------3-------------------------------------------|
-0-0-0-0--------------------------------------------------------|
-0-0-0-0--------------------------------------------------------|
 * * *
----------------------------------------------------------------|
----------------------------------------------------------------|
---------3-2---5>>>>>>------------------------------------------|
-0-0-0-0-----3--------------------------------------------------|
-0-0-0-0--------------------------------------------------------|
-0-0-0-0--------------------------------------------------------|
 * * *

B4MV 4 EVER!
Comments