Bullet For My Valentine - All These Things I Hate Chords & Tabs

 

Bullet For My Valentine Chords & Tabs

Version: 1 Type: Tab 1 rating
1 star 2 stars 3 stars 4 stars 5 stars
comments

All These Things I Hate Tab

   
Drop C Tuning - (C,G,C,F,A,D)
\ = slide down
/ = slide up
* = harmonic
h = hammer on
p = pull off
. = Palm Mute

Updated: 05/10/05 - Modified Bridge 3.

Intro (Acoustic) x2
=====
|-----------------------------------------|
|-----------------------------------------|
|-88888888---6666666---444444--3333--4444-|
|-66666666---4444444---222222--1111--2222-|
|-66666666---4444444---222222--1111--2222-|
|-66666666---4444444---222222--1111--2222-|

 -------------------------------------------------|
 -------------------------------------------------|
 -88888888---1111111111111111--444444--3333--4444-|
 -66666666---9-9-9-9-9-9-9-9---222222--1111--2222-|
 -66666666---9-9-9-9-9-9-9-9---222222--1111--2222-|
 -66666666---9-9-9-9-9-9-9-9---222222--1111--2222-|

Pre-Chorus
==========
|-----------------------------------------------|
|-----------------------------------------------|
|-66666666---888888--66--44444444---8888---6666-|
|-44444444---666666--44--22222222---6666---4444-|
|-44444444---666666--44--22222222---6666---4444-|
|-44444444---666666--44--22222222---6666---4444-|

 ----------------------------------------|
 ----------------------------------------|
 --44444444---8888---6666---44444444--3~-|
 --22222222---6666---4444---22222222--1~-|
 --22222222---6666---4444---22222222--1~-|
 --22222222---6666---4444---22222222--1~-|

Chorus
======
|-------------------------------|
|-------------------------------|
|--------888888----------666666-|
|-6666-6----------4444-4--------|
|-6666-6----------4444-4--------|
|-6666-6----------4444-4--------|
  .... .          .... .
 --------------------------|
 --------------------------|
 --------------------------|
 -222222/1111111/2222-4444-|
 -222222/1111111/2222-4444-|
 -222222/1111111/2222-4444-|

Post Chorus x3
===========
|-----------|
|-----------|
|-66--6-6p8-|
|-66--------|
|-66--------|
|-66--------|
  ..
[ Tab from: http://www.guitartabs.cc/tabs/b/bullet_for_my_valentine/all_these_things_i_hate_tab.html ]
Verse x4 (Not correct but it fits)
=====
|--------------------------------------------|
|--------------------------------------------|
|--8--8--8----6--6--6----4--4--4-----3----4--|
|---6--6-------4--4-------2--2------1----2---|
|----6--6-------4--4-------2--2-----------2--|
|-6----------4----------2----------1--1/2----|

then;
Pre-Chorus
Chorus x4

Bridge 1 x2
========
|-----------|
|-----------|
|-66--6-6p8-| x4
|-66--------|
|-66--------|
|-66--------|
  ..

|--------|
|--------|
|-4~--6~-|
|-2~--4~-|
|-2~--4~-|
|-2~--4~-|

Bridge 2 x2
========

|-----------|         |---------------|
|-----------|         |---------------|
|-66--6-6p8-| x2 then |-666666--6-6p8-|
|-66--------|         |-666666--------|
|-66--------|         |-666666--------|
|-66--------|         |-666666--------|
  ..                    ......

|--------|
|--------|
|-4~--6~-|
|-2~--4~-|
|-2~--4~-|
|-2~--4~-|

Break
=====
|-------------------|
|-------------------|
|-------------------|
|-------------------|
|-------------------|
|-6b-6b-6b-6b-6b-6b-|

Bridge 3
========
|--------------------------------| \
|--------------------------------|  |
|----------4-3----666666--888888-|  |
|-222-222------4--444444--666666-|  |
|-222-222---------444444--666666-|  |
|-222-222---------444444--666666-|  |
  ... ...                            \ x2
                                     /
|--------------------------------|  |
|--------------------------------|  |
|----------4-6-3--666666--888888-|  |
|-222-222---------444444--666666-|  | 
|-222-222---------444444--666666-|  |
|-222-222---------444444--666666-| /
  ... ...

THEN

|----------------------|
|----------------------|
|-444444444444--333333-|
|-222222222222--111111-|
|-222222222222--111111-|
|-222222222222--111111-|
                ......

Chorus x4 (First time round don't play notes on F string)

Outro
=====
|-----------|
|-----------|
|-66--6-6p8-| x4
|-66--------|
|-66--------|
|-66--------|
  ..

|-------------|
|-------------|
|-8~\\6~\\4~\-|
|-------------|
|-------------|
|-------------|
Comments