Bullet For My Valentine - All These Things I Hate Revolve Around Me Chords & Tabs

 

All These Things I Hate Revolve Around Me Chords & Tabs

Bullet For My Valentine Chords & Tabs

Version: 2 Type: Tab

All These Things I Hate Revolve Around Me Tab

   
all these things i hate tab

key:   C6 - low C/ fret 6
           C4- low C/ fret 4
           C2 - low C / fret 2
            C9 - low C / fret 9

    C6       C4                C2
Once more i say goodbye to you

    C6                       C9                      C4      C2
things happen but we don treally know why

     C6       C4
if its supposed to be like this

              C2
why do must of us ignore the chance to miss oh yeah

      C4               C6                          C2         
     C4
torn apart at the seams of my dreams turn to tears

                                  C6   C2
im not feeling this situation

                                   C2               C4              C2
............the best place to hide when your feeling like

D/------------------------------------------------------)
A/------------------------------------------------------)
F/--------------888888---------------666666-------------)
C/------------------------------------------------------)
G/--6-6-6-6---------------4-4-4-4-----------------------)
C/--6-6-6-6---------------4-4-4-4-----------------------)
         ME             (me)        YEAH        (yeah)
[ Tab from: http://www.guitartabs.cc/tabs/b/bullet_for_my_valentine/all_these_things_i_hate_revolve_around_me_tab_ver_2.html ]
D/------------------------------------------------------)
A/------------------------------------------------------)
F/------------------------------------------------------)
C/------------------1--2--------------------------------)
G/------------------1--2--------------------------------)
C/--2-2-2-2-22--1--2--4-4-4-4-4-4-----------------------)
      all these .........hate.......around

D/-----------------------------------------------------------)
A/-----------------------------------------------------------)
F/----------6-6/8----------6-6/8-----------------------------)
C/-----------------------------------------------------)-----)    x2
G/-----------------------------------------------------------)
C/----6-6-----------6-6--------------------------------------)

repeat verse but with distortion and quicker strumming.

D/----------------------------------------------------------)
A/----------------------------------------------------------)
F/----------6-6/8---------------6-6/8-----------------------)
C/-------------------------------------------1--3-----)-----)    x2
G/-------------------------------------------1--3-----------)
C/----6-6-----------666666-------------1--3-----------------)

BRIDGE -

D/-----------------------------------------------------------)
A/-----------------------------------------------------------)
F/-----------------------------------------------------------)
C/-----------------------------------------------------)-----)    x2
G/-----------------------------------------------------------)
C/--------------6b-6b-6b-6b-6b-6b----------------------------)