Buklod - Oyayi Sa Mundo Chords & Tabs

 

Oyayi Sa Mundo Chords & Tabs

Buklod Chords & Tabs

Version: 2 Type: Tab 0 ratings
1 star 2 stars 3 stars 4 stars 5 stars
comments

Oyayi Sa Mundo Tab

   
Oyayi sa mundo - buklod

tabbed by: Joshua Flores

capo 3rd fret

Intro:
           C                                              Bb7/F
e-----0----0--------------------0-3--5---3-----5-3---0----------------------|
B---3---3----------1----0-----3--------3-----3-----3-----1h3-3-------3------|
G--------------0-----0------0------------------------------------2-----2----|
D------------2---2--------2----------3---2-2-----2---2-2-------3---3--------|
A----------3------------3---------------------------------------------------|
E------------------------------------------------------------1--------------|
                                         F7
e-------------0------------------------0----------------------1------------|
B---3-----1-3---3-------3----3-----1-3---1-------1----1-----3---3----------|
G-------2-----------2-----2------2-----------2-----2------2----------------|
D-----3-----------3---3--------3-----------3---3--------3------------------|
A--------------------------------------------------------------------------|
E---1-----------1------------1-----------1------------1--------------------|
                                                            A king mundo..
[ Tab from: http://www.guitartabs.cc/tabs/b/buklod/oyayi_sa_mundo_tab_ver_2.html ]
verse:
    C                         F7           C           Bb7/F
e--(1)--------------------------------3------------0-----------------------|
B-----------1------------1--------1-----1------1-----1----------3----------|
G-------0-----0------0-----0----2---2--------0---0----------2-----2--------|
D-----2---2--------2---2------3---------------------------3---3------------|
A---3------------3-------------------------3-------------------------------|
E-------------------------------------------------------1------------------|
                                          F7
e--------------------------------------------------------------------------|
B-----------3------------3------------3------------1----------1------------|
G-------2-----2------2-----2------2-----2------2-----2------2---2----------|
D-----3---3--------3---3--------3---3--------3---3--------3----------------|
A--------------------------------------------------------------------------|
E---1------------1------------1------------1------------1------------------|
                                  C                         F7
e----------------------------1---(1)--------------------------------3------|
B-----------1--------------3---3----------1------------1--------1-----1----|
G-------2-----2------2---2------------0-----0------0-----0----2---2--------|
D-----3---3--------3---3------------2---2--------2---2------3--------------|
A---------------------------------3------------3---------------------------|
E---1------------1---------------------------------------------------------|
                           Hayaang....
    C            Bb7/F
e-----------0--------------------------------------------------------------|
B-------1-----1----------3------------3------------3------------3----------|
G-----0---0----------2-----2------2-----2------2-----2------2-----2--------|
D------------------3---3--------3---3--------3---3--------3---3------------|
A---3----------------------------------------------------------------------|
E----------------1------------1------------1------------1------------------|
    F7                                     C
e--------------------------------------------------0-----------------------|
B-----------1------------1------------1----1-----3-----3-------------------|
G-------2-----2------2-----2------2-----2------0---------------------------|
D-----3---3--------3---3--------3---3--------2-------2---------------------|
A------------------------------------------3-------------------------------|
E---1------------1------------1--------------------------------------------|
                                                 At  iti -

chorus:

    Am          Am/G        F                      C
e----------------------------------------------------------------------0----|
B-----------1-----------1-----------1----------1-----------1---------3----3-|
G-------2-----2-----2-----2-----2-----2-2--2-----2-----0-----2-----0--------|
D-----2---2-------2---2-------3---3-----3-3--3-------2---2-------2------2---|
A---0-----------------------------------3----------3-----------3------------|
E---------------3-----------1-----------1-----------------------------------|
  - gil ...                                                          Pagkat..

    Am          Am/G        F                      G
e----------------------------------------------------------------------0---|
B-----------1-----------1-----------1----------1-----------0---------3---3-|
G-------2-----2-----2-----2-----2-----2-2--2-----2-----0-----0-----0-------|
D-----2---2-------2---2-------3---3-----3-3--3-------0---0-------0---------|
A---0-----------------------------------3----------------------------------|
E---------------3-----------1-----------1----------3-----------3-----------|

verse1
Aking mundo ihimlay ang pagal mong katawan
sa duyan ng kalawakan

verse2
Hayaang maghilom ang mga sugat sa 'yong dibdib
na likha ng mga tao

chorus:
at itigil ng 'sang saglit ang iyong paggalaw
pagkat sa muli mong pag-inog ay may bago nang
buhay...

adlib (repeat intro 2x)
chorus
verse1
Comments