Built To Spill - The Weather Chords & Tabs

 

The Weather Chords & Tabs

Built To Spill Chords & Tabs

Version: 1 Type: Bass Tab 0 ratings
1 star 2 stars 3 stars 4 stars 5 stars
comments

The Weather Bass Tab

Band: Built To Spill
Song Name: The Weather Bass
Tabbed by: HellBent
Email: hellbent@programmer.net
Tunning: EADG


Wait for bass to come in...
Then: Riff 1, Bridge, Riff 2(2 times), Riff 1, Riff 3, Riff 2(Fades Out)
=============================================================================

Riff 1=======================================================================
--------------------------------------|
--2-5------9---------4-7-----7------9-|
3-----7-10-----2-5-5-----5-8---7-10---|
-------------3------------------------|
=============================================================================

Bridge=======================================================================
------|------|
------|------|
7-3---|5---3-|
----3-|--5---|
=============================================================================
[ Tab from: http://www.guitartabs.cc/tabs/b/built_to_spill/the_weather_btab.html ]
Riff 2=======================================================================
--------------------------------------------------|
-----------9----------4-7---2-5---------4-7---4-7-|
--2-5-7-10--------9-5-----3-------2-5-5-----5-----|
3------------7-10---------------3-----------------|
=============================================================================

Riff 3=======================================================================
-------------------------|--------------------------|
-----------------9------9|------------------9------9|
--2-5---2-5-7-10---7-10--|---2-5---2-5-7-10---7-10--|
3-----3------------------|-3-----3------------------|

------------------------|--------------------------|
---4-7---4-7---2-5---2-5|------------------9------9|
-5-----5-----3-----3----|---2-5---2-5-7-10---7-10--|
------------------------|-3-----3------------------|

--------------------------|
------------------9------9|
---2-5---2-5-7-10---7-10--|
-3-----3------------------|
=============================================================================
Comments