Built To Spill - Stop The Show Chords & Tabs

 

Stop The Show Chords & Tabs

Built To Spill Chords & Tabs

Version: 1 Type: Tab 0 ratings
1 star 2 stars 3 stars 4 stars 5 stars
comments

Stop The Show Tab

   
Tabbed by:CMM
Email:colin_michael_muppet@hotmail.com

Tuning:Standard

(Intro pt.One)
e|---------------2----------------|
B|-------5--7----2---2------------|
G|-----6---------3-----3----------|
D|--/7-----------4-------4--------|
A|---------------4----------------|
E|---------------2----------------|

(Intro pt.Two)
e|--3---------------------2-----------|
B|--3--------3---------2-----2--------|
G|--4---3--4--------3----------3----3-|
D|--5------------4---------------4----|
A|--5---------------------------------|
E|--3---------------------------------|

NOTE: The first two parts of the intro are heavily improvised on. Do likewise.

(Intro pt.Three Chords)
e|-----------------|
B|-----------------|
G|-----------------|
D|-4---2---5---4---|
A|-4---2---5---4---|
E|-2---0---3---2---|

(Intro pt.Three Guitar Two)
e|--------------------|
B|--------------------|
G|--------------------|
D|-4/8\4-----4--4-----|
A|--------4-----------|
E|--------------------|

(Intro pt.Three Guitar Three)
e|-x-x-x-x-x-x-x-x-x-x-|
B|-x-x-x-x-x-x-x-x-x-x-|
G|-x-x-x-x-x-x-x-x-x-x-|
D|-x-x-x-x-x-x-x-x-x-x-|
A|-x-x-x-x-x-x-x-x-x-x-|
e|-x-x-x-x-x-x-x-x-x-x-|

(Verse Chords)
e|-2---7-------------------|
B|-2---7---7---------------|
G|-3---8---7---------------|
D|-4---9---7---------------|
A|-4---9---5---------------|
E|-2---7-------------------|

(Bridge One Guitar One)
e|-----------------------------------------------------------------------|
B|-----------------------------------------------------------------------|
G|-------------------11\----------------------11-11-11-11\---------------|
D|-8---9---11---13----------8---9---11---13------------------8---9---11\-|
A|-----------------------------------------------------------------------|
E|-----------------------------------------------------------------------|
[ Tab from: http://www.guitartabs.cc/tabs/b/built_to_spill/stop_the_show_tab.html ]
e|--------------------------------------------------------------12b14~----|
B|------------------------------------------------------------------------|
G|-11--11--11---------------11~----\9-----11-9-11-9--11-9-11-9------------|
D|-------------8---9---11-------------------------------------------------|
A|------------------------------------------------------------------------|
E|------------------------------------------------------------------------|

(Bridge One Guitar Two Chord)
e|--2--|
B|--2--|
G|--3--|
D|--4--|
A|--4--|
E|--2--|

(Bridge Two Guitar One)
e|-------------------------------------------|
B|-------2--0--------------------------------|
G|-------------------------------------------|
D|-4--4--------4----2--4--4------------------|
A|---------------------------2h4--4--2-------|
E|-------------------------------------------|

(Bridge Two Guitar Two Chord)
e|-----|
B|--7--|
G|--7--|
D|--7--|
A|--5--|
E|-----|

NOTE: Only played on the fourth time the first guitar riff is played.

(Bridge Three Chords)
e|--2---7-------|
B|--2---7---7---|
G|--3---8---7---|
D|--4---9---7---|
A|--4---9---5---|
E|--2---7-------|

(Bridge Four)
e|----11----9--------------------------------------------------------------|
B|---------------11----10-10----10----9----9----9----9----8----8----8----8-|
G|-11----11---11----11-------11----11---11---11---11---11---11---11---11---|
D|-------------------------------------------------------------------------|
A|-------------------------------------------------------------------------|
E|-------------------------------------------------------------------------|

(Outro Chord)
e|------|
B|------|
G|------|
D|--4---|
A|--4---|
E|--2---|


| /  slide up
| \  slide down
| h  hammer-on
| p  pull-off
| ~  vibrato
| +  harmonic
| x  Mute note
===============================================================================
Comments