Built To Spill - Made-up Dreams Chords & Tabs

 

Made-up Dreams Chords & Tabs

Built To Spill Chords & Tabs

Version: 1 Type: Chords

Made-up Dreams Chords

   
----------------------------------------------------------------------------
			 MADE-UP DREAMS - Built To Spill
----------------------------------------------------------------------------

Tabbed by: lostpanda
Email: kylelostpanda@yahoo.com

Tuning: standard

This is only the first part of the song, before it makes the switch into part two.

Chords used:
     A5  F   C   A
e|---0---1---0---0----------------------------------------------------------|
B|---5---1---1---2----------------------------------------------------------|
G|---6---2---0---2----------------------------------------------------------|
D|---7---3---2---2----------------------------------------------------------|
A|---7---3---3---0----------------------------------------------------------|
E|--------------------------------------------------------------------------|


gtr. 1
e|-8--8--8--8--8--8--8--8----|
B|--12-12-12-12-12-12-12-12--|


gtr. 2
A5 F C
A  F C
[ Tab from: http://www.guitartabs.cc/tabs/b/built_to_spill/made_up_dreams_crd.html ]
A5      F            C
  These thoughts are old
A5      F       C
  Let's keep it cold
A5    F        C
  Dry lines on me
A5    F    C
  Dry history
A5   F  C
  Dryology

gtr. 1 plays same as gtr. 2

A F C

A     F      C
 That stupid sound
A     F     C
 That awful feel
A      F          C
 Don't bring them down
A       F     C
 And it never will
A      F     C
 No it never will
A      F     C
 No it never will
A      F     C
 No it never will

gtr. 1

e|-----------------------------------------|
B|-45-3-1---45-3-1--45-3-1---45-3-1--------|  (2x)
G|---------2--------2---------0---------0--|

gtr. 2

A F C (2x)


That's it for the first part.  If you know the rest, let me know.