Building 429 - Glory Defined Chords & Tabs

 

Glory Defined Chords & Tabs

Building 429 Chords & Tabs

Version: 2 Type: Tab 0 ratings
1 star 2 stars 3 stars 4 stars 5 stars
comments

Glory Defined Tab

   
E-|guitar tuning,d-a-d-g-b-E
a-|guitar tuning,E-a-d-g-b-E accostic plays chords
intro
 d               g               d              g
e-------------------------------------------------|
b3-3-3-3-3-3-3-3-----------------3-3-3-3-3-3-3-3--|
g2-2-2-2-2-2-2-2-4-4-4-4-4-4-4-4-2-2-2-2-2-2-2-2-4|
d0-0-0-0-0-0-0-0-5-5-5-5-5-5-5-5-0-0-0-0-0-0-0-0-5|
a0-0-0-0-0-0-0-0-5-5-5-5-5-5-5-5-0-0-0-0-0-0-0-0-5|
d----------------5-5-5-5-5-5-5-5-----------------5|
verse 1
 g                        A/C# d a    d    g                  A/C# d a d Bm
e-------------------------------------------------------------------------XX-|
b-----8------------8-----------3------3----------------8--8---------------XX-|
g---7-----------7------------2------2-------------------7-----------------XX-|
d5-----------5--------------2------2--------------------------------------XX-|
a-------------------------4------0----------------------------------------XX-|
d-------------------------------------------------------------------------XX-|
Chorus
 D2              Bm        Dsus     d         Dsus         Bm F#M d g  Em
e----------------------------------------------------------------------------|
b3-3-3-3-3-3-3-3-3-3-3-3-3-3-3-3----3-3-3-3-3-3-3-3-3-3-3-3--3---3-----------|
g2-2-2-2-2-2-2-2-4-4-4-4-4-2-2-2----2-2-2-2-2-2-2-2-2-2-2-2--4---2-----------|
d0-0-0-0-0-0-0-0-4-4-4-4-4-0-0-0----0-0-0-0-0-0-0-0-0-0-0-0--4-4-0-5-5-2-2-2-|
a0-0-0-0-0-0-0-0-2-2-2-2-2-0-0-0----0-0-0-0-0-0-0-0-0-0-0-0--2-4-0-5-5-2-2-2-|
d--------------------------------------------------------------4---5-5-2-2-2-|
                                                            e7-2-3-----------|
                                                   guitar2  b7-2-2-----------|
                                                            g----------------|

                intro

verse 2:
(no distortion)
g(play like this x55433)   A/C# d g                 A/C# d a  d  Bm
                                          e--------|
                                   Guitar2b8---8---|
                                          g--7-----|

                      Chorus
bridge:

e--------------------------------------------------------x-|
b3-x-3-x-x-------------3-x-3-x-x-3-----------------------x-|
g4-x-4-x-x-2-x-2-x-x-2-2-x-2-x-x-2---------2--2----------x-|
d4-x-4-x-x-2-x-2-x-x-2-0-x-0-x-x-0-5-5-5-5-2--2----5-----x-|
a2-x-2-x-x-0-x-0-x-x-0-0-x-0-x-x-0-5-5-5-5-0--0----5-----x-|
d----------------------------------5-5-5-5---------5-----x-|

                       Chorus x2
                     outro same as intro


     Have fun and good luck
[ Tab from: http://www.guitartabs.cc/tabs/b/building_429/glory_defined_tab_ver_2.html ]
Comments