Budgie - In The Grip Of A Tyrefitters Hand Chords & Tabs

 

In The Grip Of A Tyrefitters Hand Chords & Tabs

Budgie Chords & Tabs

Version: 1 Type: Bass Tab

In The Grip Of A Tyrefitters Hand Bass Tab

This tab isn't mine, someone else did it and put it on www.mxtabs.net and I thought it 
be nice if someone put it on this website, so I did.

Budgie - in the grip of a tyrefitters hand

bass

Intro - Fill
-------------------------------|
-/11-11-11--11--11-11-11-11----|
-------------------------------|
-------------------------------|

Verse
------------------------------|
------------------------------|
4---4-4-2-4---4-4-2-4---------|
------------------------------|

You got your feeling
It's an old fashion feeling
About the world and it's ways
No retrubition, no simple soultion
I think we're caught in a maze,
And all that plunder,that feeling down under
It tends to gnaw at you
We're in the grip, it's a total eclipse
The tyrefitters got you

Pre - Chorus
------------------------------------|
------------------------------------|
0000-10--0000-6--0000-4-4----2-2----|
------------------------------------|  X4

Chorus 1st and 4th
-------10,10,10----------------|
-------------------------------|
----------------8-8-8----------|
2222--------------------8-2----|

2nd and 3rd time
-------10,10,10----------------|
-------------------------------|
----------------8--88----------|
2222--------------------8-2----|

*Break*

Fill
-----------------------------------------|
9h11,11,11p9h11,11,11,11,11-9------------|
------------------------------11-9-------|
-----------------------------------11----|
[ Tab from: http://www.guitartabs.cc/tabs/b/budgie/in_the_grip_of_a_tyrefitters_hand_btab.html ]
Verse 2
Now let me explain this feeling of pain
Comes from the man at the top
His grip is so tight, he's political might
The tyrefitter will not stop
He's bleeding your brain, he'll drive you insane
Nobody making a move
He'll give you a pen but he's got him a gun
The tyre man is oh so shrewd

Pre-Chorus

Chorus

Bridge
------------|
------------|
4~----------|
------------|

------------------------|
------------------------|
4---4-4-2-4-4-----------|
-------------0-0-2-4----| X4

--------2p0-----------------------------|
----2h4-----4--4-4-2-4-4---2h4--4-4-2-4-|
2h4----------------------4--------------|
----------------------------------------|

3p1------|------------------------|
---3p1---|------------------------|
------3p1|-4--4-4-2-4-------------|
---------|------------0-0-2-4-----| X2

Solo, Pre-Chorus

*Break*

Fill
--------------------------------|
11~---9~------------------------|
--------------------------------|
--------------------------------|

Verse 3
I'm licking my wounds and mending my bones
And catching the wind out of town,
We're all in the grip of a tyrefitter's hand
It's only doing me harm
Running away just isn't the way
You got to get it yourself
Watch what we do, we just gotta make do
And hide away on the shelf

Pre-Chrous

------------------------|
------------------------|
4---4-4-2-4-4--------4--|
-------------0-0-2-4----| x2

------|----------------------------------|
3p1---|----------------------------------|
---3p1|-----------4--4-2-4--4-4-2-4-/-10-|
------|2-0--0-0-2------------------------|

Coda
-------------18p16---------|
15p13--18p16---------------|
---------------------------|
---------------------------| X5

----------------------|
----------------------|
7-7-7-7-7-7-7-7-7-7-7-|
----------------------|
(Underneath)

Outro (Repeat And Fade)
----------------------|
---------------5------|
7-7-7-7-7-7-7---------|
----------------------|