Budgie - Crash Course In Brain Surgery Chords & Tabs

 

Crash Course In Brain Surgery Chords & Tabs

Budgie Chords & Tabs

Version: 1 Type: Bass Tab

Crash Course In Brain Surgery Bass Tab

Intro
|-------------------------7-8-9--------------|
|-------------------7-8-9-------7-8-9-7-8-9--|
|---------------7-8--------------------------| x3
|-------------7------------------------------|

|------------------------------------------------------------|
|-------------------------------------------4-2--------------|
|-----------------------------------------------3-1----------| x2
|-0h2-2-2-2--0h2-2-2-2-0h2-2-2-2-0h2-2-2-2----------4-2--0-1-|

Verse
|--------------------------------------------------|
|--------------------------------------------------|
|--------------------------------------------------| x4
|--0h2-2-2-2--0h2-2-2-2-0h2-2-2-2-0h2-2-2-2--------|

|--------------------------------------------------|
|--------------------------------------------------|
|--------------------------------------------------|
|--3h5-5-5-5-3h5-5-5-5-3h5-5-5-5--3-0~-------------|

After Verse (Twice)
|------------------------------------------------------------|
|-------------------------------------------4-2--------------|
|-----------------------------------------------3-1----------| x2
|-0h2-2-2-2--0h2-2-2-2-0h2-2-2-2-0h2-2-2-2----------4-2--0-1-|
[ Tab from: http://www.guitartabs.cc/tabs/b/budgie/crash_course_in_brain_surgery_btab.html ]
|---------------------------------------------------------|
|---------------------------------------------------------|
|---------------------------------------------------------|
|-2----------2---------2-------2-----18/------------------|

|--------------------------------------------------|
|--------------------------------------------------|
|--------------------------------------------------|
|--3h5-5-5-5-3h5-5-5-5-3h5-5-5-5--3-0~-------------|

Guitar and Bass Break
|------------------------------------------------------------------------|
|------------------------------------------------------------------------|
|------------------------------------------------------------------------|
|-5-7-5-7-5-7--5--0-2-0-2--5--5-7-5-7-5-7--5--0-2-0-2-0-2----------------|

|--------------------------------------------------------------------------|
|------------------------------7-6-5---------------------------------------|
|------------------------------------7-6-5-------5-------------------------|
|-5-7-5-7-5-7--4--0-2-0-2--5---------------8-5-8---------------------------|

|---------------------------------------------------------------------------|
|------7-----------7--------------------------------------------------------|
|--7h9-------7--7h9------7--------------------------------------------------|
|--------7h9---------7h9----------------------------------------------------|

Then Repeat 2nd part of intro until the end of the song.
The majority of this song is played pretty fast.
Enjoy.