Buddy Holly - Pressure Chords & Tabs

 

Pressure Chords & Tabs

Buddy Holly Chords & Tabs

Version: 1 Type: Tab 0 ratings
1 star 2 stars 3 stars 4 stars 5 stars
comments

Pressure Tab

heres a cool tab for a meaningful song
words and music by...Ben Blanchard
off the album of :almost leagle
tabed by:paul morrison

intro and verse

E---------------------------------------|
----------------------------------------|x2 for intro
----7-7---------------------------------|
----7-7-----9-9-9---5-5-5----9-9-9------|and just keep playing for verse
----5-5-----9-9-9---5-5-5----9-9-9------|
e-----------7-7-7---3-3-3----7-7-7------|
[ Tab from: http://www.guitartabs.cc/tabs/b/buddy_holly/pressure_tab.html ]
chorus
---------------------------|                rudy:bass. josh: the drummer.
---------------------------|                come in really loud on the
--7-7-7-7------------------|                intro so play kinda softly.
--7-7-7-7-----2-2-2-2------|
--5-5-5-5-----2-2-2-2------|
--------------0-0-0-0------|


brige
--------------------------|
--------------------------|
--7-7-7-7-----------------|
--7-7-7-7--8-8-8-8--------|
--5-5-5-5--8-8-8-8--------|
-----------6-6-6-6--------|
Comments