Buckley Jeff - Hallelujah Chords & Tabs

 

Hallelujah Chords & Tabs

Buckley Jeff Chords & Tabs

Version: 1 Type: Tab 1 rating
1 star 2 stars 3 stars 4 stars 5 stars
comments

Hallelujah Tab

Hallelujah       Jeff BUCKLEY




Tabbed using www.GuitarAndBass.co.uk Transcription Tools v1.12
--------------------------------------------------------------

                                                      
E||----------5----5--------|--5----------------------|
B||--5----8----------------|-------8--5----5---------|
G||----------8----8--------|-------------------------|
D||------------------------|----------7----7---------|
A||------------------------|-------------------------|
E||------------------------|--------------------5----|


                                  
----------5----5-----------------|
--5----8-------------5--------5--|
----------8----8--8--------8-----|
------------------------7--------|
---------------------------------|
---------------------------------|


                                       
--5-----------------------------------|
--------8--5-----5--5-----------------|
-----8--------5--------5-----------5--|
--7--------7--------------7-----7-----|
--------------------------------------|
-----------------------------5--------|


                                       
--------------------------------------|
--5-----5-----------------------------|
-----5-----------5--------5--------5--|
--7-----5-----7--------7--------7-----|
-----------6--------6--------6--------|
--------------------------------------|


                                       
--------------------------------------|
--------------------------------------|
--------5--------5--------5--------5--|
-----7--------7--------7--------7-----|
--6--------7--------7--------7--------|
--------------------------------------|


                                      
-------------------------------------|
-------------------------------5--5--|
-------------8--8-----8--8-----8--8--|
-------7-----7--7-----7--7-----7--7--|
--7-------6--------6--------6--------|
-------------------------------------|


                                       
--------------------------------------|
-----5--5-----5--5-----5--5-----5--5--|
-----8--8-----5--5-----5--5-----5--5--|
-----7--7-----7--6-----6--5-----6--6--|
--6--------7--------7--8--7--5--------|
--------------------------------------|


                                       
--------------------------------5--5--|
-----5--5--------------6--6-----6--6--|
-----5--5-----5--5-----5--5-----5--5--|
-----6--6-----7--7-----7--7-----7--7--|
--5-----------------------------------|
-----------8--------8--------8--------|


                                                                  
-----5--5-----5--5-----5--5-------|------5-----------------------|
-----6--6-----6--6-----6--6-------|------6--8--------------------|
-----5--5-----5--5-----5--5-------|------5--7--------------------|
-----7--7-----7--7-----7--7-------|------7--5-----------------5--|
----------------------------------|------8--5--------------7-----|
--8--------8--------8--------8----|---------8--------7--5--------|


                                       
--------------------------------------|
--8-----------------8-----------------|
--5-----------------5-----------------|
-----5-----------5-----5-----------5--|
--------------7-----------------7-----|
--------7--8--------------7--5--------|


                                       
--------------------8-----------------|
--8-----------------8-----------------|
--5-----------------5-----------------|
-----5-----------5-----5-----------5--|
--------------7-----------------7-----|
--------7--8--------------7--5--------|


                                         
|---8-----------------8-----------------|
|---8-----------------8-----------------|
|*--5-----------------5-----------------|
|*-----5-----------5-----5-----------5--|
|---------------7-----------------7-----|
|---------7--8--------------7--5--------|
[ Tab from: http://www.guitartabs.cc/tabs/b/buckley_jeff/hallelujah_tab.html ]
Tabbed using www.GuitarAndBass.co.uk Transcription Tools v1.12
--------------------------------------------------------------
                                       
--8-----------------8-----------------|
--8-----------------8-----------------|
--5-----------------5-----------------|
-----5-----------5-----5-----------5--|
--------------7-----------------7-----|
--------7--8--------------7--5--------|


                                       
--8-----------------8-----------------|
--8-----------------8-----------------|
--5-----------------5-----------------|
-----5-----------5-----5-----------5--|
--------------7-----------------7-----|
--------7--8--------------7--5--------|


                                       
--8-----------------8-----------------|
--8-----------------8-----------------|
--5-----------------5-----------------|
-----5-----------5-----5-----------5--|
--------------7-----------------7-----|
--------7--8--------------7--5--------|


                                      
--8----------------5-----5-----------|
--8----------------6-----6--------6--|
--5-------------5-----5--------5-----|
-------5-----7--------------7--------|
----------8--------------------------|
-------------------------------------|


                                        
--7--------8--------8--------5h7-------|
--8--8-----8-----8--8--8-----8---8-----|
--7-----7--5--5-----------5--7------7--|
--5--------------------------5---------|
-----------7--------7------------------|
---------------------------------------|


                                       
--7--------------------------5--------|
--8--8-----8--------8--------6--6-----|
--7-----7-----5-----5--5-----5-----5--|
--5-----5--5-----5--------5-----------|
--------5--7--------7--------8--------|
--------------------------------------|


                                       
--7--------5--------5--------5--------|
--8--8--------5--------5--------6-----|
--7-----7--5-----5--5-----5--5-----5--|
--5-----------------------------------|
-----------------------------8--------|
-----------5--------5-----------------|


                                       
--5--------7--------7--------7--------|
-----6--------8--------8--------9-----|
--5-----5--7-----7--7-----7--7-----7--|
--7--------5--------5--------9--------|
--------------------------------------|
--------------------------------------|


                                   
--7--------8--------8-------------|
-----9-----5--5-----5--5----------|
--7-----7--------5--------5-------|
--9--------7--------7--------7----|
----------------------------------|
----------------------------------|


                                      
----------5--------5-----------------|
--5--8-------6-----6--6-----------6--|
--5--5----5-----5--------5-----5-----|
--5----------------------------------|
-----7----8--------8--------8--------|
-------------------------------------|


                                       
--5-----------------------------------|
--------8--5--------5-----------------|
--------5--5-----5--5--5-----------5--|
-----7-----7--7-----------7-----7-----|
--8-----------------------------------|
-----------5-----------------5--------|


                                       
-----------5--------------------------|
--5-----8-----6-----------6-----6-----|
--------5--5-----5-----5-----5-----5--|
--7--7--------------------------------|
-----------8--------8--------8--------|
--5-----------------------------------|


                                      
--5----------------8-----------------|
--6----8--5-----5--5--5-----------8--|
--5----5--5-----5--5-----5-----7-----|
-------------5--------------5--------|
--8----------------------------------|
----------8--------------------------|


                                       2x
--7-----------------8------------------||
--8--8--------------8------------------||
--------9-----------5-----------------*||
--5--------------5-----5-----------5--*||
--------------7-----------------7------||
-----------8--------------7--5---------||

Tabbed using www.GuitarAndBass.co.uk Transcription Tools v1.12
--------------------------------------------------------------
Comments