Buckethead - Want Some Slaw Chords & Tabs

 

Want Some Slaw Chords & Tabs

Buckethead Chords & Tabs

Version: 1 Type: Tab 0 ratings
1 star 2 stars 3 stars 4 stars 5 stars
comments

Want Some Slaw Tab

Want some slaw? Buckethead Tabs by Limpy
dinolimpyhodzic@hotmail.com
Main riff

-----------------------------------------------------------------------
-----------------------------------------------------------------------
--8--11-10-----------8--11-10-11-10----------8-11-10-7-10-9-6-9-8----
-----------------------------------------------------------------------
------------4---3----------------------4--3---------------------------
------------2---1----------------------2--1--------------------------- 
Buckethead`s a psycho HEīs a total psycho
-----------------------------------------------------------------------
-----------------------------------------------------------------------
--19-15------19-15------19-15------17-14------15-12-----15-12------
---------17----------17--------17----------15---------13--------13----
-----------------------------------------------------------------------
----------------------------------------------------------------------- 
 
----------------------------------------------------------------------- 
----------------------------------------------------------------------- 
-15-12------17-14------------------------------------------------------ 
-------13----------15------------------------------------------- AGAIN
----------------------------------------------------------------------- 
-----------------------------------------------------------------------
[ Tab from: http://www.guitartabs.cc/tabs/b/buckethead/want_some_slaw_tab.html ]
-----------------------------------------------------------------------
----------------------------------------10--11--10------------
----------------------------------------10--10--10----------------
-----------------------------------------------------------------------
--5--5--()-()--5--5--()-()--5-5--()-()---------------------------------
--3--3--()-()--3--3--()-()--3-3--()-()--------------------------- 
 
-----------------------------------------------------------------------
----------------------------------------15--16--15--------
----------------------------------------15--15--15--------------
-----------------------------------------------------------------------
--5--5--()-()--5--5--()-()--5-5--()-()---------------------------------
--3--3--()-()--3--3--()-()--3-3--()-()--------------------------- 
Play that a few times
AND THEN ---------------(kalle.....klaga inte)
play the main riff
after the main riff the solo/lead part comes
SOLO
----------------------------------------------------------------------- 
------------------------------15-13-11--------------------------------------- 
-14---12--10---12-14-------------------14~-----14--12--10--12-14-------
-----------------------12--------------------------------------------12---- 
----------------------------------------------------------------------- 
-----------------------------------------------------------------------
 
-----------------------------------------------------------------------
-----------------------------------------------------------------------
---------10---7~-----------------------------------------------------------
-7--10--------------------------------------------------------------------
-----------------------------------10-11-13-11-10-----10-11-13-15-------
--------------------------8-11-13------------------13---------------------- 
 
-----------------------------------------------------------------------
-----------------------------------------------------------------------
---------------------------------------13-15-17-15-13-------------------
----------------------------13-15-17-------------------17-15-13--9------
-16-15-13-------13-15-16----------------------------------------------
------------16----------------------------------------------------------- 
 
-----------------------------------------------------------------------
-----------------------------------------------------------------------
-12-(half step bend)-----13------------------------------------------
-----------------------------17-15-13-15-17--13-(1 step bend)--------
-----------------------------------------------------------------------
-----------------------------------------------------------------------
 
----------------------13--------------------13-15-16-15-16-15-13----
--13-14-16-13-14-16-----16-14-13--14-16----------------------------
-----------------------------------------------------------------------
-----------------------------------------------------------------------
-----------------------------------------------------------------------
----------------------------------------------------------------------- 
 
-----------------------------------------------------------------------
-16-14-13-14-16-14-13-----13------------------------------------------
-------------------------15----15-13-15-13-12---------------------------- 
------------------------------------------------15-13-11---------------------
-----------------------------------------------------------15-13-11------
-------------------------------------------------------------------------- 
 
--------------------------------------------------------------------------
--------------------------------------------------------------------------
--------------------------------------------------------------------------
--------------------------------------------------------------------------
--------------------------------------------------------------------------
-15-13-11-13-15--16-16~~-----------------------------------------------
Next riff


--------------------------------------------------------------------------
--------------------------------------------------------------------------
--------------------------------------------------------------------------
--------------------------------------------------------------------------
--4-------4--------------4---------------4-------------4---------3~------
--2--4/---2--2-2---4/----2---2-2-2--4/--2---2-2--4/---2--2-2-2----------
a couple of times
next riff
--------------------------------------------------------------------------
-9-9------10-10-----11-11-------------------------------------------------
------11--------12---------13----and up the scale---------------------
--------------------------------------------------------------------------
--------------------------------------------------------------------------
--------------------------------------------------------------------------
There is only one thing left you have to know about......and it is the weerd 
chords in the end of the song.
They are really hard to find out
but heres one of them
--0~-----------------------------------
--4~-----------------------------------
--8~-----------------------------------
-------------------------------------
-------------------------------------
------------------------------------
itīs the first one........if anyone can find out the chords mail: 
dinolimpyhodzic@hotmail.com
Thanks 
  
Comments