Buckethead - Waiting Hare Chords & Tabs

 

Waiting Hare Chords & Tabs

Buckethead Chords & Tabs

Version: 1 Type: Tab

Waiting Hare Tab

   
-------------------------------------------------------------------------------
			     Waiting Hare - Buckethead
-------------------------------------------------------------------------------
Tabbed by: bobbynogo
Email: bobbynogo@yahoo.com

Tuning: standard

Ok, this is one of the songs off the new buckethead cd, which all of you should
own. It isnt just the intro, but i cant figure out the rest so i figured it would
be better to give you more than expected in an intro than less than a song in a
whole tab

Kudos to Chris Blanton for help with this

[ Tab from: http://www.guitartabs.cc/tabs/b/buckethead/waiting_hare_tab.html ]
Verse (some effect, perhaps auto-wah?)
e|-----------5---------------5---------------0---------------0-----------------|
B|-------7-----7---7-----7-----7---7-----3-----3---3-----3-----3---3-----------|
G|-----7---7-----7-----7---7-----7-----0---0-----0-----0---0-----0-------------|
D|---5---------------4---------------------------------------------------------|
A|-----------------------------------2---------------3-------------------------|
E|-----------------------------------------------------------------------------|
(Repeat x number of times)
The progression changes when serj starts singing, but im not certian of this part
e|-----------10---10-------10---10-----------------------------------------------------|
B|-------7-8----8----8--------8----8---------------------------------------------------|
G|-------------------------------------------------------------------------------------|
D|-----9-----------------9-------------------------------------------------------------|
A|---7-----------------9---------------------------------------------------------------|
E|-------------------------------------------------------------------------------------|
(Repeat x number of times)

Chorus
e|------------------0-------------------3-----|
B|------------------0-------------------1-----|
G|------------------0-------------------0-----|
D|------------------2-x5*---------------2-x5*-|
A|---0h2h5p2p0------2-----0h2h5p2p0---3-3-----|
E|------------h3-0--0--------------h3---------|
(Figure out strumming on own)

Sorry that was all i could figure out right now.
| /  slide up
| \  slide down
| h  hammer-on
| p  pull-off
| ~  vibrato
| +  harmonic
| x  Mute note
===============================================================================