Buckethead - Hog Bitch Stomp Chords & Tabs

 

Hog Bitch Stomp Chords & Tabs

Buckethead Chords & Tabs

Version: 2 Type: Tab 0 ratings
1 star 2 stars 3 stars 4 stars 5 stars
comments

Hog Bitch Stomp Tab

|--------------------------|--------------------------|
|--------------------------|--------------------------|
|--------------------------|--------------------------|
|-/5-5-5-5-5-5-5-5-5-5-5-5-|-/5-5-5-5-5-5-5-5-5-5-5-5-|
|--------------------------|--------------------------|
|--------------------------|--------------------------|


|-------0---0-----------0---0-----|-------0---0-----------------|
|-----3---3-----0-----3---3-----0-|-----3---3-----0---0---0-----|
|-3-4---------4---3-4---------4---|-3-4---------4---3---3---0---|
|---------------------------------|-----------------------------|
|---------------------------------|-----------------------------|
|---------------------------------|-----------------------------|


|-------0---0-----------0---0-----|-3-3-3-3-3p0-----------------|
|-----3---3-----0-----3---3-----0-|-------------3p0-------------|
|-3-4---------4---3-4---------4---|-----------------3p0-----0---|
|---------------------------------|---------------------2p0-----|
|---------------------------------|-----------------------------|
|---------------------------------|-----------------------------|


|-----------------------------|-----------------------------|
|-----------------------------|-----------------------------|
|-----------------------------|---------0-2-0-3-2-0-3-2-0---|
|---------0-2-0-3-2-0-3-2-0---|---0-2-3-------------------2-|
|---0-2-3-------------------2-|-3---------------------------|
|-3---------------------------|-----------------------------|


|-----------------------------|-------------------------------|
|-----------------------------|-------------------------------|
|-----------------------------|-------------------------------|
|---------0-2-0-3-2-0-3-2-0---|-----------------0---0---0---0-|
|---0-2-3-------------------2-|-/5-5-5-/5-5-5-5---4---3---1---|
|-3---------------------------|-------------------------------|

[ Tab from: http://www.guitartabs.cc/tabs/b/buckethead/hog_bitch_stomp_tab_ver_2.html ]
|-----------------------------|-----------------------------|
|-----------------------------|-----------------------------|
|-----------------------------|---------0-2-0-3-2-0-3-2-0---|
|---------0-2-0-3-2-0-3-2-0---|---0-2-3-------------------2-|
|---0-2-3-------------------2-|-3---------------------------|
|-3---------------------------|-----------------------------|


|-----------------------------|-------------------------------|
|-----------------------------|-------------------------------|
|-----------------------------|-------------------------------|
|---------0-2-0-3-2-0-3-2-0---|-----------------0---0---0---0-|
|---0-2-3-------------------2-|-/5-5-5-/5-5-5-5---4---3---1---|
|-3---------------------------|-------------------------------|


|-3-3-3-3-3-3-3-3-------|-----------0---1---0-1-0--------|
|-3-3-3-3-3-3-3-3-------|-------0-3---3---3-------3------|
|-0-0-0-0-0-0-0-0-------|-0-2-3---------------------4-0--|
|-0-0-0-0-0-0-0-0-0-2-4-|--------------------------------|
|-2-2-2-2-2-2-2-2-------|--------------------------------|
|-3-3-3-3-3-3-3-3-------|--------------------------------|



|------------------------|------------------------------|
|------------------------|------------------------------|
|-3-0-2-3-2-0------------|---------2-4-2-5-2-4-5-4-2----|
|-------------1-2------5-|-0-2-3-4-------------------3--|
|-----------------3------|------------------------------|
|------------------------|------------------------------|



|---------------3--------|-6-3-5-6-5-3---------------------|
|---------3-5-3------3-5-|-------------5-3-6-3-5-6-5-3-----|
|-0-2-3-4----------------|-----------------------------4-0-|
|------------------------|---------------------------------|
|------------------------|---------------------------------|
|------------------------|---------------------------------|


|------------------------|------------------------------|
|------------------------|------------------------------|
|-3-0-2-3-2-0------------|---------2-4-2-5-2-4-5-4-2----|
|-------------1-2------5-|-0-2-3-4-------------------3--|
|-----------------3------|------------------------------|
|------------------------|------------------------------|



|---------------3-----|
|---------3-5-3-------|
|-0-2-3-4-------------|
|---------------------|
|---------------------|
|---------------------|
Comments