Buckethead - Hog Bitch Stomp Chords & Tabs

 

Hog Bitch Stomp Chords & Tabs

Buckethead Chords & Tabs

Version: 1 Type: Tab 0 ratings
1 star 2 stars 3 stars 4 stars 5 stars
comments

Hog Bitch Stomp Tab

e-------------------------------------0-0--0---0-0--------------
B--------------------------------------3-3--3---3-3-------------
G------------------------------------4----4---4----3h4p3h4-0----
D---/5-555-5-5-5-5-5-/5-555-5-5-5-5-5---------------------------
A---------------------------------------------------------------
E---------------------------------------------------------------

e---0---0-0---33333p0------------
B----3-3---3---------3p0---------
G--4-----4--------------3p0---0--
D--------------------------2p0---
A--------------------------------
E--------------------------------

e---------------------------------------------------------------
B---------------------------------------------------------------
G---------------------------------0h2p0-3p2p0-3p2p0-------------
D--------0h2p0-3p2p0-3p2p0---0h1h2-----------------2------0h2p0-
A---0h1h2-----------------2-3------------------------0h1h2------
E--3------------------------------------------------3-----------
[ Tab from: http://www.guitartabs.cc/tabs/b/buckethead/hog_bitch_stomp_tab.html ]
e---------------------------------------------------------------
B---------------------------------------------------------------
G--------------------0------------------------------------------
D--3p2p0-3p2p0-----0-0--0-0------------0h2p0-3p2p0-3p2p0---0h1h2
A-------------2-/5--5--5-5-4-3-1--0h1h2-----------------2-3-----
E--------------------------------3------------------------------

e---------------------------------------------------------------
B---------------------------------------------------------------
G--0h2p0-3p2p0-3p2p0-------------------------------0------------
D-------------------2------0h2p0-3p2p0-3p2p0-----0-0--0-0-------
A---------------------0h1h2-----------------2-/5--5--5-5-4-3-1--
E--------------------3-----------------------------------------3

e---------------------------------------------------------------
B--0-1-0-0------------353635653---------------------------------
G--0-2-0-0-----0-2h3h4---------4-302320--------------242524542--
D---------0-2-4------------------------1h2--0-5-2h3h4---------4-
A-----------------------------------------3---------------------
E---------------------------------------------------------------

e-----------3-353635653-----------------------------------------
B--------3h5-----------5-635653---------------------------------
G---2h3h4----------------------4-302320--------------242524542--
D--5-----------------------------------1h2--0-5-2h3h4---------4-
A-----------------------------------------3---------------------
E---------------------------------------------------------------

e-----------3-3-3--
B--------3h5--0-0--
G---2h3h4-----0-0--
D--5----------0-0--
A------------------
E------------------
Comments