Buckethead - Ghost Part 2 Chords & Tabs

 

Ghost Part 2 Chords & Tabs

Buckethead Chords & Tabs

Version: 3 Type: Tab 0 ratings
1 star 2 stars 3 stars 4 stars 5 stars
comments

Ghost Part 2 Tab

   
Tune Down:
6th=Eb 5th=Ab 4th=Db 3rd=Gb 2nd=Bb 1st=Eb

E----------------------------------------------------------------------|
B----------------------------------------------------------------------|
G----------------------------------------------------------------------|
D-14--17--15----14-----------------------------------------------------|
A-------------0~-------------------------------------------------------|
E----------------------------------------------------------------------|

E----------------------------------------------------------------------|
B----------------------------------------------------------------------|
G----------------------------------------------------------------------|
D-14--17--15--12--14s15s14---------------------------------------------|
A---------------------------0~-----------------------------------------|
E----------------------------------------------------------------------|

E----------------------------------------------------------------------|
B----------------------------------------------------------------------|
G----------------------------------------------------------------------|
D-14-17--15----14------------------------------------------------------|
A------------0~--------------------------------------------------------|
E----------------------------------------------------------------------|

Let notes ring
E----------------------------------------------------8-----------------|
B---------------------------------------------------8------------------|
G----------------------------------------------9h10--------------------|
D-14--17--15--12--12s14-14h15---15p14-------10-------------------------|
A-----------------------------0~----------0----------------------------|
E----------------------------------------------------------------------|

E----------------------------------------------------------------------|
B----------------------------------------------------------------------|
G----------------------------------------------------------------------|
D-14--17--15----14-----------------------------------------------------|
A-------------0~-------------------------------------------------------|
E----------------------------------------------------------------------|

Let notes ring
E-----------------------------------------0----------------------------|
B---------------------------------------1------------------------------|
G-------------------------------------4--------------------------------|
D-14--17--15--12--12-14h15-14-------2----------------------------------|
A---------------------------------0------------------------------------|
E----------------------------------------------------------------------|

E----------------------------------------------------------------------|
B----------------------------------------------------------------------|
G----------------------------------------------------------------------|
D-14--17-15----14------------------------------------------------------|
A------------0~--------------------------------------------------------|
E----------------------------------------------------------------------|

E----------------------------------------------------------------------|
B----------------------------------------------------------------------|
G----------------------------------------------------------------------|
D-14--17--15--12--12s14-14h15p14---------------------------------------|
A---------------------------------(0)----------------------------------|
E----------------------------------------------------------------------|

E-1-----------0--------------------------------------------------------|
B---1---1-----1--------------------------------------------------------|
G-----0-------2--------------------------------------------------------|
D-------------2--------------------------------------------------------|
A-3-----------0--------------------------------------------------------|
E----------------------------------------------------------------------|
[ Tab from: http://www.guitartabs.cc/tabs/b/buckethead/ghost_part_2_tab_ver_3.html ]
E----------------------------------------------------------------------|
B----------------------------------------------------------------------|
G----------------------------------------------------------------------|
D-14--17--15----14-----------------------------------------------------|
A-------------0~-------------------------------------------------------|
E----------------------------------------------------------------------|

E----------------------------------------------------------------------|
B----------------------------------------------------------------------|
G----------------------------------------------------------------------|
D-14--17--15--12--12-14h15p14------------------------------------------|
A------------0---------------------------------------------------------|
E----------------------------------------------------------------------|

E-12--15--13--12-------------------------------------------------------|
B----------------------------------------------------------------------|
G--9--12--10---9-------------------------------------------------------|
D----------------------------------------------------------------------|
A--------------0-------------------------------------------------------|
E----------------------------------------------------------------------|

E-12--15--13--10--10--12s13s12-----------------------------------------|
B----------------------------------------------------------------------|
G--9--12--10---7---7---9s10s9------------------------------------------|
D----------------------------------------------------------------------|
A--------------0---------------0---------------------------------------|
E----------------------------------------------------------------------|

E------------------------8-7-------------------------------------------|
B----------------------6-----8--5--------------------------------------|
G--------------------5----------5--------------------------------------|
D--------------3-5s7------------7--------------------------------------|
A------------3------------------0--------------------------------------|
E-0--1--s3-5-----------------------------------------------------------|

E-------------------------8-7------------------------------------------|
B-----------------------6-----8----------------------------------------|
G---------------------5------------------------------------------------|
D-------------3-5-5s7--------------------------------------------------|
A-----------3----------------------------------------------------------|
E-0--1--3s5------------------------------------------------------------|

E----------------------------------------------------------------------|
B----------------------------------------------------------------------|
G----------------------------------------------------------------------|
D-15---14---14--17--15----12--12--14h15-14-----------------------------|
A-----0------------------0---------------------------------------------|
E----------------------------------------------------------------------|

E----------------------------------------------------------------------|
B----------------------------------------------------------------------|
G----------------------------------------------------------------------|
D-14--17--15---14------------------------------------------------------|
A-------------0--------------------------------------------------------|
E----------------------------------------------------------------------|

E----------------------------------------------------------------------|
B----------------------------------------------------------------------|
G----------------------------------------------------------------------|
D-14--17--15--12--12-15------------------------------------------------|
A----------------------------------------------------------------------|
E----------------------------------------------------------------------|

E-------------<12>-------8---------------------------------------------|
B-------0----------<12>-----------0------------------------------------|
G-----5---------------------------5------------------------------------|
D---7----------------------<7>----7------------------------------------|
A-0-------------------------------0------------------------------------|
E----------------------------------------------------------------------|
Comments