Buckethead - Frozen Brains Tell No Tales Chords & Tabs

 

Frozen Brains Tell No Tales Chords & Tabs

Buckethead Chords & Tabs

Version: 1 Type: Tab 0 ratings
1 star 2 stars 3 stars 4 stars 5 stars
comments

Frozen Brains Tell No Tales Tab

Intro (with Delay and slight auto-wah):
e------------------------------------------------------------------|
B------------------------------------------------------------------|
G------------------------------------------------------------------|
D-------------4--5-------------------------------------------------|
A---------2---------5-----------2----------------------------------|
E------2---------------------2-------------------------------------|
B---0---------------------0---------0------------------------------|

Main riff (with Distortion):
e------------------------------------------------------------------|
B------------------------------------------------------------------|
G------------------------------------------------------------------|
D------------------------------------------------------------------|
A------------------------------------------------------------------|
E--------2----/5--2---2------------2----2/3--2----2----------------|
B---0-3----3--------3---------0-3----3---------3-------------------|
[ Tab from: http://www.guitartabs.cc/tabs/b/buckethead/frozen_brains_tell_no_tales_tab.html ]
Break riff (under "Buckethead's a psycho...")
e------------------------------------------------------------------|
B------------------------------------------------------------------|
G------------------------------------------------------------------|
D------------------------------------------------------------------|
A------------------------------------------------------------------|
E---------2------1~~-----------------------------------------------|
B---0-3-----3------------------------------------------------------|

Bridge riff:
e------------------------------------------------------------------|
B------------------------------------------------------------------|
G------------------------------------------------------------------|
D----9----5--/7-7---9---5------------------------------------------|
A----9----5--/7-7---9---5------------------------------------------|
E----7----3--/5-5---7---3------------------------------------------|
B------0 -------------0--------------------------------------------|

Interlude riff:
e------------------------------------------------------------------|
B------------------------------------------------------------------|
G------------------------------------------------------------------|
D------------------------------------------------------------------|
A------------------------------------------------------------------|
E----------7~--------------9~----------5~--------3--2--------------|
B--0--/7--------0--/10--------0--/7------0--/5-------3-------------|
Comments