Buckethead - For Mom Chords & Tabs

 

For Mom Chords & Tabs

Buckethead Chords & Tabs

Version: 1 Type: Tab 0 ratings
1 star 2 stars 3 stars 4 stars 5 stars
comments

For Mom Tab

   
For Mom by Buckethead
from Colma 
tabbed by The Shape

intro:

rhythm figure 1
guitars 1 & 2 
|---------------------------------------------------------------------------------|
|-----------------------4------------------------------------4--------------------|
|--------------------5-----5------------------------------4-----4-----------------|
|-----------------6-----------6------------------------6-----------6--------------|
|--------------6-----------------6------------------6-----------------6-----------|
|-----------4-----------------------4------------4-----------------------4--------|

|---------------------------------------------------------------------------------|
|------------------------------------------------------------4--------------------|
|-----------------------3-----4---------------------------5-----5----------------*|
|-----------------2--2-----2---------------------------6-----------6-------------*|
|--------------2------------------------------------6-----------------6-----------|
|-----------0------------------------------------4-----------------------4--------|

rhythm figure 2
guitar 2 Ab5 Ab5 F#5
guitar 1
|---------------------------------------------------|
|-----------------7-------------------7-------------|
|---------4-----------4-------4-----------4--------*|
|-----6-------6-----------6-------6-----------4----*|
|---------------------------------------------------|
|---------------------------------------------------|

Ab5 F#5 Ab5 

|---------|-----------------------|
|----7----|-----------------7-----|
|----4----|-----------------4----*|
|----6----|----4-----4------6----*|
|---------|-------4---------------|
|---------|----2------------------|

rhythm figure 3
guitar 2 B F# E B 
guitar 1
|-----11--11----11--12--14--12--11----------------11--12--11----------------------|
|-----------------------------------14--14----14--------------14--12--12----------|
|---------------------------------------------------------------------------6h8---|
|---------------------------------------------------------------------------------|
|---------------------------------------------------------------------------------|
|---------------------------------------------------------------------------------|

|-----11--11----11h12----------------------------------------|
|------------------------14--14----14h16--12--12-------------|
|---------------------------------------------------9--8----*|
|-----------------------------------------------------------*|
|------------------------------------------------------------|
|------------------------------------------------------------|

guitar 2 Abm Abm 
guitar 1
|----7--6-------------------------------|
|-------------7-------------------------|
|----------6--------------4--3-----3----|
|----------------------6--------4-------|
|---------------------------------------|
|---------------------------------------|

rhythm figure 1

rhythm figure 2

rhythm figure 3

guitar 2 Abm Abm 
guitar 1
|---------------------------------------|
|---------------------------------------|
|-------4--3--------------4--3-----3----|
|----6--------4--------6--------4-------|
|---------------------------------------|
|---------------------------------------|

solo:

rhythm figure 4
guitar 2 C5 Bb5 Ab5 Ab5 
guitar 1
|---------------------------------------------------------------------------------|
|--------------------8--8-8----------8--8-8---------------------------------------|
|--8--7h8--8--7h8------------10--10----------8--8--8------------------------------|
|------------------------------------------------------------------------------8--|
|-------------------------------------------------------11--11p10--10--10h11------|
|---------------------------------------------------------------------------------|
[ Tab from: http://www.guitartabs.cc/tabs/b/buckethead/for_mom_tab.html ]
with rhythm figure 4
guitar 1
|---------------------------------------------------------------------------------|
|--8h9----8----------8----11-11-11-11--9--8--8h9-------------------------------8--|
|--8------8----10---------------------------------8--7--7h8-----7--7h8--8--10--8--|
|--10--------------------------------------------------------8--------------------|
|---------------------------------------------------------------------------------|
|---------------------------------------------------------------------------------|

|----------6/8--8-8-------8--10--10h11--10----------------------------------------|
|-----------------------9-------------------11--------------8-8-8-8--8------------|
|--8--8-8------------r8-------------------------10--8/10----------------10--8--8--|
|---------------------------------------------------------------------------------|
|---------------------------------------------------------------------------------|
|---------------------------------------------------------------------------------|

|---------------------------------------------8--10-----------------8--10--11--13-|
|-------------------------------------------8-------11------------8---------------|
|--7----7--7--7h8--8----------------------8-------------8-------8-----------------|
|---------------------8---------------r10-------------------r10-------------------|
|------------------------8--8--8h10-----------------------------------------------|
|---------------------------------------------------------------------------------|

|--15-15--15--13--11--11\10--10-10-10--11-11---11\10------------------------------|
|----------------------------11-11-11--13-13----------11--------------------------|
|---------------------------------------------------------10----12----------------|
|---------------------------------------------------------------13----13--12--13--|
|---------------------------------------------------------------------------------|
|---------------------------------------------------------------------------------|

|---------------------------------------------------------------------------------|
|--------8--9--8-----8---------8--9--8-----11---------8--9--8------------8--9--8--|
|------8----------8--8-------8----------8-----------8----------8-------8----------|
|--r10-------------------r10--------------------r10----------------r10------------|
|---------------------------------------------------------------------------------|
|---------------------------------------------------------------------------------|

|------------------------------------------8--10--10------------------------------|
|-----------8---------------8------------8------------11--------------------------|
|--8--8h10-----8--7h8--8-8-----8-------8-------------------8--8--7h8--------------|
|----------------------------------r10--------------------------------10--10---8--|
|---------------------------------------------------------------------------------|
|---------------------------------------------------------------------------------|

|---------------8--10--------------------------------------------------------6/8--|
|-------------8---------11--11--11\8--8-------------------------------------------|
|-----------8-----------------------------10--8--8--8--7h8--8---8--10--7--8-------|
|--10---r10-----------------------------------------------------------------------|
|---------------------------------------------------------------------------------|
|---------------------------------------------------------------------------------|

|--8------------------------------------------------------------------------------|
|-----8--8/11--11---------8--9--8-------------8--9--8-----------------------------|
|-----------------------8----------8--------8----------8--8/10---7--7--7h8--7--7--|
|-------------------r10-----------------r10----------------------8--8--8----8--8--|
|---------------------------------------------------------------------------------|
|---------------------------------------------------------------------------------|


|----------------8--10--11--11/13p11--10------|
|--------------8--------------------------11--|
|--7h8-------8--------------------------------|
|--8-----r10----------------------------------|
|---------------------------------------------|
|---------------------------------------------|

outro:

|----11--10----------------------------------------------------8------------------|
|-------------11p8-------------------------------------------8--------------------|
|-------------------8--7--8--------------------------------8----------------------|
|----------------------------10-------------------------12------------------------|
|--------------------------------10------------------10---------------------------|
|------------------------------------11--10--------8------------------------------|
Comments