Buckethead - Binge And Grab Chords & Tabs

 

Binge And Grab Chords & Tabs

Buckethead Chords & Tabs

Version: 2 Type: Tab 0 ratings
1 star 2 stars 3 stars 4 stars 5 stars
comments

Binge And Grab Tab

this is my first tab and im 100% sure its right.

riff 1
-----------------------------------------------
-----------------------------------------------
-----------------------------------------------
--------9-----11---9--4------4-----7-6-4---2---
-2---7-----7----------2---2-----2----------0---
-0---------------------------------------------

-----------------------------------------------
-----------------------------------------------
---------------6---8---9-8-6-------------------
---9---6---7-----7---7-------------------------
-0---0---0---0---------------------------------
-----------------------------------------------
[ Tab from: http://www.guitartabs.cc/tabs/b/buckethead/binge_and_grab_tab_ver_2.html ]
--------------------------------0-------------0------
----5--7--5-----4--5--4-----4-----4-------4-----4----
-6--6--6--6--4--4--4--4--2----2-----2-------2-----2--
-6--6--6--6--4--4--4--4--2---------------------------
-4-----------2-----------0-------------0-------------
-----------------------------------------------------

riff 2
-----------------------------------|
-----------------------------------|
-------------------------------2---|
-6~---4---6---2---6~------1-2--2---|
-4~---4---4---4---4~---2-------0---|
-----------------------------------|

2nd time you play riff 2
-0-----0--------------0-----0--------|
---4-----4--------------4-----4------|
-----4-----4--------------4-----4----|
-------------2--4--2--------------2--|
----------------2--0-----------------|
-------------------------------------|

riff 3
1st time
--------------------------------------|
--------------------------------------|
--------------------------------------|
---6-2---6-2---6-2---6-2--2-4---------|
-4-----4-----4-----4------0-2---------|
--------------------------------------|

2nd time
-------------------
-------------------
-9--8---6----------
-9--8---6----------
-7--6---4----------
-------------------


Comments