Buckethead - Binge And Grab Chords & Tabs

 

Binge And Grab Chords & Tabs

Buckethead Chords & Tabs

Version: 1 Type: Tab 0 ratings
1 star 2 stars 3 stars 4 stars 5 stars
comments

Binge And Grab Tab

binge and grab (instrumental)
by daniel mcquillan
sic-world@home.com
send comments and pointers please


---------------|----------------|------------------|--------0-----|
---------------|----------------|------------------|-2---4----4---|
-9-------------|----------------|-2----4---1---2---|---2---2----6-|
-9---9---/11---|-9----4---7-6-4-|-2--2---2---2---2-|--------------|
-7-7---7-----9-|-9--6---6-------|-0----------------|--------------|
-0-------------|-7--------------|------------------|--------------|
[ Tab from: http://www.guitartabs.cc/tabs/b/buckethead/binge_and_grab_tab.html ]
---------------|----------0-----|---------0-----|
-5----5---7--5-|------4-----4---|-----4---------|
-6----6---4--4-|-2--2---4-----6-|-2-2---2-------|
-6----6---6--6-|-2--------------|---------------|
-4--4---4------|-0--------------|---------------|go back to start
---------------|----------------|-----------4-2-|
                                                fill/
------------------|----------------------|---------0-----0-------|
------------------|----------------------|-----------4-----4---0-|
------------------|----------------------|-------------4-----4---|
-4-6--------4-6-2-|---4-6------------4-2-|-----4-----------------|
-2-4-444444-2-4-0-|---2-4-444444---6---0-|---6---0---------------|
------------------|--------------7-------|-7---------------------|

crazy part
-------------------------|
-------------------------|
-------------------------|play really fast
-------6^2---------6^2---|
-4^0^4-----6-4^0^4-----6-|
-------------------------|

If you have any requests for any other buckethead songs, ive got a couple more sittin around my room.
MY email is at the top.../
Comments