Buckcherry - You Chords & Tabs

 

You Chords & Tabs

Buckcherry Chords & Tabs

Version: 1 Type: Tab 0 ratings
1 star 2 stars 3 stars 4 stars 5 stars
comments

You Tab

   
Auther/Artist:Buckcherry
Title:You
Transcribed by:Justin Harmon
Email:womenarenice@hotmail.com


This is one of my favorite song by buckcherry
I dont know why anyone would call these guys one
hit wonders they have 2 albums full of GREAT songs


Enjoy

Intro/Verses:Guitar 1(clean electric)
E--------------------------------------------------------|
B------------------------------------------8/10-10/8-8---|
G--7/9/7---------------------------7-------7/9---9/7-7---|
D--7/9/7-------5--------------7h9-----7h9----------------|
A---------5h7-----7---7p5-7------------------------------|
E--------------------------------------------------------|

Intro/Verses:Guitar 2(acoustic)
E----0--------3--------------------|
B----1--------3--------------------|
G----2--------4--------------------|
D----2--------5--------------------|
A----0--------5--------------------|
E-------------3--------------------|

Pre-Chorus:Guitar 1
E---------------------------|
B---------------------------|
G---------------------------|
D--7h9--7--7-7h9------------|
A-----------------10--------|
E---------------------------|

Pre-Chorus:Guitar 2
E--3----3-------3-------3---3---3------------|
B--3------3---3---3---3---3---3---3----------|
G--4-----------------------------------------|
D--5-5------5-------5------------------------|
A--5-----------------------------------------|
E--3-----------------------------------------|

C             F                      G
And with the change and new test of faith

                    C
To help us through tomorrow

       F           Am         G
A condition of the love we made


Chorus:

                               C
Cause things wont change without you
[ Tab from: http://www.guitartabs.cc/tabs/b/buckcherry/you_tab.html ]
                        Am
Forfeit the lies that maimed you

                                G
wanna dance with the lines and change things

                       F      G        C
But I can't do it without you   you you

Verse 2

Pre-Chorus


Bridge:

C          G
So take it easy girl

        Am
You're falling through the night

F          G
Your Mona Lisa eyes

     Am             G
Will comfort me the rest of my life


Chorus x2


Solo:
E----------------------------------------------17b--15~--|
B--17-17b--17p15---------17-17b--17p15-------------------|
G-----------------17-14-----------------17-14------------|
D--------------------------------------------------------|
A--------------------------------------------------------|
E--------------------------------------------------------|

-----------------------15---------------------|
--15-17-18-18---17-18------17b----------------|
--------------------------------14--17~-------|
----------------------------------------------|
----------------------------------------------|
----------------------------------------------|

        C
And when love is in your life

       Am
I will never say goodbye

    G
We stand alone tonight

    F            G
Without you  Without you

         C
And when love is in your life

       Am
I will never say goodbye

    G
We stand alone tonight

    F            G
Without you  Without you

Outro:

C       Am      G
You You You You You

    F
Without you

     G       C
Without You
Comments