Buckcherry - Lit Up Chords & Tabs

 

Lit Up Chords & Tabs

Buckcherry Chords & Tabs

Version: 5 Type: Tab 0 ratings
1 star 2 stars 3 stars 4 stars 5 stars
comments

Lit Up Tab

   
intro/verse

e|---------------------------------------------|
b|---------------------------------------------|
g|-5-----5---------5-555-555x------------------|
d|-55-5-555-5x-333-5-555-555x-555--------------|    
a|-35-5-535-5x-333-3-333-333x-555--------------|
E|--3-3-3-3-3x-111------------333--------------|

chorus
e|------------------------------------------------------|
b|------------------------------------------------------|
g|-88888888x---------1010101010101010x------------------|
d|-88888888x88888888x1010101010101010x1010101010101010x-|
a|-66666666x88888888x8-8-8-8-8-8-8-8-x1010101010101010x-|
E|----------66666666x-----------------8-8-8-8-8-8-8-8-x-|

e|------------------------------------------------------|
b|------------------------------------------------------|
g|-88888888x------------------------101010\5-55555------|
d|-88888888x88888888--5555-5555-555-101010\5-55555------|
a|-66666666x88888888--5555-5555-555-8-8-8-\3-33333------|
E|----------66666666--3333-3333-333---------------------|

e|------------------|
b|------------------|
g|-55555-555--------|
d|-55555-555--------|
a|-33333-333--------|
E|------------------|

solo 1

d|----------------------3-----------3-------------------|
b|---------------3----3---6b---6bd----6--3--------------|
g|---3---5---3---3-5b--------0-------------6--5--3b-----| bd=bend down
d|-5---5---5---5------------------------------------5---|
a|------------------------------------------------------|
E|------------------------------------------------------|

solo 2

d|---------------------3--------------------------------|
b|-------------------3----6/8-8~~---/18-18--18----------|
g|--------3---3---5b----------------/17-17--17b---------|
d|-5~~~~~---5-------------------------------------------|
a|------------------------------------------------------|
E|------------------------------------------------------|

D|------------------------------------------------------|
b|-18-----18------18--18--18---18-18-18\--15-15----15---|
g|----17b----17b--17b-17b-17b--17-17-17\--15-15-17------|
d|------------------------------------------------------|
a|------------------------------------------------------|
E|------------------------------------------------------|
[ Tab from: http://www.guitartabs.cc/tabs/b/buckcherry/lit_up_tab_ver_5.html ]
d|--------------------------------------15-----15----15-|
b|-17-15-17----------------------15-18b----18b----18----|
g|-17-15-17--17p15----15--------------------------------|
d|-----------------17----17~~~~-------------------------|
a|------------------------------------------------------|
E|------------------------------------------------------|

d|-----15----15----15-----------------------------------|
b|--18----17----18----17--18-18b~~~~--------------------|
g|------------------------------------------------------|
d|------------------------------------------------------|
a|------------------------------------------------------|
E|------------------------------------------------------|

solo 3

d|------------------------------------------------------|
b|-----0-----3------------------------------------------|
g|-----0-----3----5---3---5---3----------------3---5----|
d|-------3/5----5---5---5---5---5~~~-5-3-5-3h5---5---5--|
a|-------3/5--------------------------------------------|
E|--12\-------------------------------------------------|

e|--------3---------------------------------------------|
b|--3-----3--------------0----3---5---3-----------------|
g|--3-5b----5b5p3--------0----3---5---3---5---3---------|
d|----------------5--------/5---5---5---5---5---5~~~----|
a|------------------/15\--------------------------------|
E|------------------------------------------------------|

d|------------------------------------------------------------------|
b|---------------------3-3-6b~~--6-/8--------8--8~~~--8-------------|
g|----3-------3---3-5b-----------7-/9-10-10-10-10~~~----9-10~~~~~~--|
d|--5---3-3h5---5---------------------------------------------------|
a|------------------------------------------------------------------|
E|------------------------------------------------------------------|

d|------------------------------------------------------------|
b|-------------------0--------3---5---3---5---3---------------|
g|--10-10/12-0-10~~~-0-12/----3---5---3---5---3---------------|
d|--------------------------5---5---5---5---5---5~~-3-3-5~~~--|
a|------------------------------------------------------------|
E|------------------------------------------------------------|

d|------------------------------------------------------|
b|--3-3---3---3-----3-3-6-6------6/8~~~~~~~~~~~---------|
g|--3-3---3---3-5b--------5b-5p3------------------------|
d|------5---5-------------------------------------------|
a|------------------------------------------------------|
E|------------------------------------------------------|
Comments