Buckcherry - Lit Up Chords & Tabs

 

Lit Up Chords & Tabs

Buckcherry Chords & Tabs

Version: 3 Type: Bass Tab 0 ratings
1 star 2 stars 3 stars 4 stars 5 stars
comments

Lit Up Bass Tab

Buckcherry
Lit Up

The Tabs are a bit more accurate than the ones posted on the net.


G|-----------------------------------------------------------------------------|
D|-----------------------------------------------------------------------------|
A|-----------------------------------------------------------------3--3--------|
E|-3--3--3--3----3--3--3--3----3--3--1--1----1--1--1--1------------------------|

G|-----------------------------------------------------------------------------|
D|-----------------------------------------------------------------------------|
A|--3--3----3--3--3--3---------------------------------------------------------|
E|-----------------------------------------------------------------------------|

X4

Bridge:

G|-----------------------------------------------------------------------------|
D|----------6-/-8-\-6----------------------------------8-/-10-\-8--------------|
A|--6--6---------------8------------------6--8--8------------------10----------|
E|--------------------------6--6--6--6-----------------------------------------|
[ Tab from: http://www.guitartabs.cc/tabs/b/buckcherry/lit_up_btab_ver_3.html ]
G|-----------------------------------------------------------------------------|
D|-----------------------------------6-/-8-\-6---------------------------------|
A|---------10--8----------6--6-----------------8-------------------------------|
E|--8--8----------10-------------------------------6--6--6--6------------------|

Chorus:
G|-----------------------------------------------------------------------------|
D|-----------------------------------------------------------------------------|
A|-------------------------------------------------1h3--3--3-------------------|
E|--3--3--3--3----3--3--3--3----1--1--1--1-------------------------------------|

G|-----------------------------------------------------------------------------|
D|-----------------------------------------------------------------------------|
A|-----------------------------------------------------------------------------|
E|--1--0--1--0----3--3--3--3---------------------------------------------------|

Break:

G|-----------------------------------------------------------------------------|
D|-----------------------------------------------------------------------------|
A|----------------------------------3--3--3--3----1--1--1--1-------------------|
E|--3--3--3--3----1--1--1--1---------------------------------------------------|
Comments