Buckcherry - For The Movies Chords & Tabs

 

For The Movies Chords & Tabs

Buckcherry Chords & Tabs

Version: 3 Type: Tab 0 ratings
1 star 2 stars 3 stars 4 stars 5 stars
comments

For The Movies Tab

   
T1: Aaron Irons, bananaCo89@hotmail.com, Buckcherry, For the Movies,
1999

S1: This version is way better than the one that was here. It has the
solo every riff tabbed out. Please let this one count, "For the Movies"
                                 |
 by Buckcherry                                    |
from the Self Titled Album on Dreamworks Records  |
--------------------------------------------------|
Transcribed by Aaron Irons (bananaCo89@hotmail.com)
http://members.xoom.com/theAxe/


 ___________________
|   CHORD CHART     |
|-------------------|
|Av      5x7655     |
|C#m     x46654     |
|D       xx0232     |
|G9      xx5765     |
|A5      x022x0     |
|B5      x244xx     |
|A/C#    x422xx     |
|Bm7     x242xx     |
|A       x0222x     |
|Dsus2   x522xx     |
|D5      x577xx     |
|E5VII   0799xx     |
|E VII   07999x     |
|E       022100     |
|E7      022130     |
|Dsus2/A x00230     |
|DV      x5777x     |
|F#5     244xxx     |
|F#5 IX  x91111xx   |
\-------------------/
*note- the lyrics areny in sync with the music (just so you know)

Intro and Verses 1 & 2
----------------------
Verse 1 (lyrics)
Do you remember all our love
Did you get back from what you gave
I see some symptons of a past that you forgave
You never where exspendable
You always made me feel alive
And now where in the middle of
a transition in our lives of

Verse 2 (lyrics)
Do you feel singled out
Do you feel less than all the rest
You know its interchangeble
The spotlight and the pain
I want to get on top of this
Iwant to build that trust again
And if i give it all i got
Well im sure youd do the same


|-5--5h7p5------|-----------4----|-----2--2--0-------|-----5----7----|
|-5--5-----5----|---------5------|-------------3-----|---6-----------|
|-6--------6----|-------6--------|--2------------2p0-|---------------|
|-7----------7\-|-----6----------|0------------------|-5-------------|
|---------------|-3/4------------|-------------------|---------------|
|-5-------------|----------------|-------------------|---------------|
Play this for the 1st and 2nd Verses

Pre-Chorus
----------
A change of pace could realy do some good
She's Leaving, An empty case but youre bringin back the show
I'm leaving now

 A5     Bm7              A/C#   Dsus2   A5   Bm7   A/C#    Dsus2  E5   
 EVII
  /      /                /        /     /    /     /        /    /////
 /////


Chorus
------
Wake up and see the places 
All you got and all you can take 
You don't have to fall to pieces you have to prove it
Make up your pretty face 
It's a lovely  trip a lovely place
You got one life here to make it for the movies yeah yeah


AII       E         Dsus2/A      E7        AII        E        Dsus2/A
/ / XXXX   /  /   XXX / /   XXXX  / /  XXXX / / XXXX   / /    XXX /  /
/ XXX
(play riff A)

EVII        DV   AII       E        Dsus2/A   E7        AII     E      
 
/ / / / / /  / X  / / XXXX / / XXXX / / XXXX  / / XX XX / / XXXX / /
XXX 
                (play riff A)

EVII          DV
/ / / / / /  /    X  

RIFF A
E||*-0-0-0-0-0-0-0-0-0-0-0-0-0-0-0-0-|-0-0-0-0-0-0-0-0-0-0-0-0-0-0-0-0-*||
B||--5-5-5-5-5-5-5-5-5-5-5-5-5-5-5-5-|-5-5-5-5-5-5-5-5-5-5-5-5-5-5-5-5--||
G||*---------------------------------|---------------------------------*||


Now play the intro and go back and do 2nd Verse pre chorus, and chorus 
again but the 2nd time, after the chorus go to the guitar solo (below)

Guitar Solo
-----------
                               | full bends  |               ~~~~
|----------------------------------|------------------------------------|
|----------------------------------|-------------------------------17b--|
|-------------------------------16b|-16b--16br-h14----14h16-14----------|
|-------14----14-16br-h14----14----|---------------16-------------------|
|-14h16----16-------------16-------|------------------------------------|
|----------------------------------|------------------------------------|
[ Tab from: http://www.guitartabs.cc/tabs/b/buckcherry/for_the_movies_tab_ver_3.html ]
                                                               
~~~~~~~~
|-17---17--------------------------|------------------------------------|
|----17---17-14--------------------|------------------------------------|
|---------------16br-h14-16h14-16b-|h14----14-16b-h14----14h16-14-------|
|----------------------------------|----16------------16----------------|
|----------------------------------|------------------------------------|
|----------------------------------|------------------------------------|

(during solo play)
 ________________________________________________________________
|   A5           E               Dv             EVII             |
|   /  / / /   / /  /    /    /  /   / / /  / / /  / / /   / /   |
|________________________________________________________________|

Now play intro while two othe guitars play this:
|---------------|----------------------|---------------|--------------------|
|---------------|----------------------|---------------|--------------------|
|---------------|----------------------|---------------|--------------------|
|-7----7/-9/11\-|6-------------6\4\2---|/-9-\-7-/16-\--|-14-----------------|
|-7----9/11/12\-|7-------------7-------|-12-\-9-/17-\--|-16-----------------|
|---------------|----------------------|---------------|--------------------|
|                                                                      
    |
|Gtr. 3                                                                
    |
|--5------------|-------------4--------|--2------------|--5-----------------|
|--5------------|-------------5--------|--3------------|--6-----------------|
|--6------------|---------6------------|--2------------|--7-----------------|
|--7------------|----6-----------------|--0------------|--5-----------------|
|---------------|/4--------------------|---------------|--------------------|
|--5------------|----------------------|---------------|--------------------|

Verse 3
-------
(lyrics)
I gotta face the fear in this
I see a place for you and I
We can make the most of this
'Cause our passion never dies
And if you believe in me
I'll choose a path and change your mind
And you can take me to your room
Or whereever you may hide

|---5------------------|-4--------------------|-2--------------------|
|---5------------------|-5--------------------|-3--------------------|
|---6------------------|-6--------------------|-2--------------------|
|---7------------------|-6--------------------|-0--------------------|
|----------------------|-4--------------------|----------------------|
|----------------------|----------------------|----------------------|


|-------------(5)-(5)--|-5--------5h7p5-------|---------------4------|
|----------------------|-5--------5-----5-----|------------5---------|
|----------------------|-6--------------6-----|---------6------------|
|----------------------|-7--------------------|-----6----------------|
|----------------------|----------------------|-4--------------------|
|----------------------|-5--------------------|----------------------|


|---------2------2---0-------------|-----------------------7---------|
|-----------------------3----------|------6---6----------------------|
|------2--------------------2------|---------------------------------|
|--0-------------------------------|-5-------------------------------|
|----------------------------------|---------------------------------|
|----------------------------------|---------------------------------|

go back to pre chorus and play it

then play the chorus this way

Last chorus
-----------
(lyrics)
Wake up and see the places
All you got and all you take
You don't have to fall to pieces
you have to prove it
Make up your pretty face
It's a lovely trip  a lovley place
You've got one life to make it for the movies

AII       E         Dsus2/A      E7        AII        E        Dsus2/A
/ / XXXX   /  /   XXX / /   XXXX  / /  XXXX / / XXXX   / /    XXX /  /
/ XXX
(play riff A)

EVII        DV    B5          F#5       E5VII          F#5IX
/ / / / / /  / X  /  /  XXXX  /  /  XXX /   /  / XXX  / /   / X / XX

B5      F#5        E5VII        F#5IX     E5VII 
/ / XXX / /  / XXX /   /  / XXX / / / / / / / / /

Outro
-----
(lyrics)
Yeah Yeah Yeah (a bunch of times)

B5            E F#5           E5VII              F#5IX          A 
/  / / / / /    / / / / / / / /  / / / / / / / /  / / / / / / / (open)

B5            E    F#5            E5VII              F#5IX         B5
/ / / / / / /(open) / / / / / / / /  / / / / / / / / / / / / / / / /  
(repeat outro again)

end on B5 




Well that pretty much it.There are some more parts that i didnt think
really
needed to be added that would have caused confusion but if you want
them,
just email me :bananaCo89@hotmail.com

From The Axe Tab Archive
http://members.xoom.com/theAxe






Comments