Buck-o-nine - Callin In Sick Chords & Tabs

 

Callin In Sick Chords & Tabs

Buck-o-nine Chords & Tabs

Version: 1 Type: Bass Tab 0 ratings
1 star 2 stars 3 stars 4 stars 5 stars
comments

Callin In Sick Bass Tab

Song: Callin' In Sick
Band: Buck-O-Nine
Album: Barfly
tabbed by: Adam Marish


Intro w/ Horns

G:------------------------
D:------------------------
A:-2-(hold)---------------
E:----------2-(hold)------

I am...Callin' In Sick
[ Tab from: http://www.guitartabs.cc/tabs/b/buck_o_nine/callin_in_sick_btab.html ]
G:----------------------------
D:----------------------------
A:-3333-----------3333--------
E:------1111-3333-------------

Ska Riff

G:-------------------------------------------
D:---2-5-2-------------------------5-22------
A:-3-----------0-3-0-----2-5-2---3------3----
E:-----------1---------3---------------------

Well That's The Song...It's An Awesome Ska Tune.

Adam Marish
The Royal Noise Brigade - Awesome Pa Ska
www.come.to/royalnoisebrigade
Comments