Buck-o-nine - Peach Fish Chords & Tabs

 

Peach Fish Chords & Tabs

Buck-o-nine Chords & Tabs

Version: 1 Type: Bass Tab 0 ratings
1 star 2 stars 3 stars 4 stars 5 stars
comments

Peach Fish Bass Tab

artist: buck o nine
song: peach fish

Big Main Part of the song:
E-0--0-0-3---------------3--0-
A--------------2-0--0-2---------
D-----------------------------------
G-----------------------------------
[ Tab from: http://www.guitartabs.cc/tabs/b/buck-o-nine/peach_fish_btab.html ]
Little Verse Part:
E---------------------3-3----
A-0--0-0-2--2-2----------
D-----------------------------
G-----------------------------

Then the part after some verses:
E-------------------0----
A-0-0-0-0-0-0-------
D------------------------
G------------------------ 
Comments