Buck-o-nine - Nineteen Chords & Tabs

 

Nineteen Chords & Tabs

Buck-o-nine Chords & Tabs

Version: 1 Type: Bass Tab 0 ratings
1 star 2 stars 3 stars 4 stars 5 stars
comments

Nineteen Bass Tab


Buck-0-Nine

Nineteen

28 Teeth



intro

E-5-5-5------------------------4-4-4--------4-4-4-----7-

A----------4--7-7-7-----7-4---------4-4-4--------4-4--

D------------4-------6-4---------------------------------------

G------------------------------------------------------------------

play three times, then play



E-5-5-5------------------------4-4-4--------4-4-7-7-7-7-

A----------4--7-7-7-----7-4-----------------------------------

D------------4-------6-4-----------------------------------------

G-------------------------------------------------------------------

one time



Verse

E-5-5-5-5------------------------

A------------7-7-7-7-5-5-5-5-

D-----------------------------------

G-----------------------------------



Chorus



E-2-2-2-2-2-2-2-2-----------------------------------------------------------

-----------


[ Tab from: http://www.guitartabs.cc/tabs/b/buck-o-nine/nineteen_btab.html ]
A------------------------0-0-0-0-0-0-0-0-----------------------2-2-2-2-2-2-2

-2-



D----------------------------------------------2-2-2-2-2-2-2-2--------------

-----------



G---------------------------------------------------------------------------

-------------------

times 3 then



E-5-5-5-5---------------

A------------7-7-7-7-7-

D--------------------------

G-------------------------

into the verse



"with every day that goes by..." part

E-5-5--5--------------------------------7---

A----------7-7--7-5-5--5-7-7-7-5---5-

D-----------------------------------------------

G-----------------------------------------------



That's mostly it. The verse is the extremely simplified version, 'cause I

haven't had time to figure it out yet. I will later, though. If you do

before me, e-mail corrections to sapbtp@hotmail.com or go to

http://www.geocities.com/SunsetStrip/Arena/1602 and e-mail it to me.



Matt Kessler




Comments