Buck-o-nine - Albuqerque Chords & Tabs

 

Albuqerque Chords & Tabs

Buck-o-nine Chords & Tabs

Version: 1 Type: Bass Tab 0 ratings
1 star 2 stars 3 stars 4 stars 5 stars
comments

Albuqerque Bass Tab

Song: Albuqerque
Artist: Buck o Nine
Tabbed By: Andreas Skotheim (asskt2001@skateboard.com)

1-----------
2-----------
3-1-0-------
4------3-1--     2x intro

1-----------------
2-----------------
3-111-000-1-0-----
4--------------3-1     1x 2cond intro

Chorus:

1------------------------------------------------------------------------------------------
2------------------------------------------------------------------------------------------
3---------333333----------0111111----------333333--111-000-1-0-------111-000-33333333333333
4-111111----------111111-----------111111-----------------------3-1------------------------

Verse:

1-----------------------------------------------------------------------------------------
2------7---7-8-10-8-7-------------------------------7---7-8-10-8-7--------------10-8-7-8-7
3-8888---8------------8-------5---5-6-8-6-5-6--8888---8------------8-----7-8-10-----------
4------------------------6666---6--------------------------------------8------------------
[ Tab from: http://www.guitartabs.cc/tabs/b/buck-o-nine/albuqerque_btab.html ]
1----------------------------------------------------------------------------------
2------7---7-8-10-8-7--------------------------------------------------------------
3-8888---8------------8-------5---5-6-8-6-5-6-------7---------5------------33333333
4------------------------6666---6--------------8-88---8--6-66---6-11111111---------

Chorus: 2x

Verse: 4x

Chorus: 2x


Break:

1------------------------------------------
2------------------7-7-7-5-5---------------
3--3-4-5-5-5-5-5-5-----------3-888888888888          2x
4------------------------------------------

1---------------------------------------------------------------
2---------------------------------------------------------------
3--3-2-11111111-3333333-11111111-33333333-11111111-33333333-7777
4---------------------------------------------------------------

Chorus 1x

Break at the end of the chorus second half time: (if you listen to the song 
you will notice)

1-----------------------------------------------------------
2-----------------------------------------------------------
3--6-6-6-6-6-6-6-6--8-8-8-8--6-6-6-6--11111111-33333333-----
4-----------------------------------------------------------

After this you can play the chorus until the music fades out.

That`s it!                               Tabed by Andreas!!    :)

Comments