Buck-o-nine - Ah Yeah Chords & Tabs

 

Ah Yeah Chords & Tabs

Buck-o-nine Chords & Tabs

Version: 1 Type: Bass Tab 0 ratings
1 star 2 stars 3 stars 4 stars 5 stars
comments

Ah Yeah Bass Tab

Song: Ah Yeah
Band: Buck-O-Nine
Album: Songs In The Key Of Bree
tabbed by: Adam Marish


Intro Riff

G:----------------
D:-------77-------
A:----66----------
E:-88-------77----

Verse Riff

G:------------------------------/--------/--------------
D:-----7-----------------7-----/--------/---------------
A:-5-8---8------8-7--5-8---8--/----1-3-/---3-1----------
E:----------5-8--------------/-0-3----/--0-----3--------

Chorus

G:------------------------------
D:------------------------------
A:-------------------33-33-33---
E:-5-5-5-5-55--1-1-1------------

Bridge
[ Tab from: http://www.guitartabs.cc/tabs/b/buck-o-nine/ah_yeah_btab.html ]
G:---------------------------------------
D:---------------------------------------
A:-----3--------3---------5--------5-----
E:-1-4---4--1-4---4---3-6---6--3-6---6---


Guitar Solo Riff

G:--------------------------------/----------/----------
D:------777----------------777---/----------/-----------
A:-555----------777--5--5-------/-----1-3--/-------3-1--
E:----------5--5---------------/-3--3-----/---3--3------

Well There You Go...Great Buck-O-Nine Song From The Good
Old Days.

Adam Marish
The Royal Noise Brigade - Awesome Pennsylvania Ska
www.come.to/royalnoisebrigade

Comments