Bubblegum Ride - Lucky Man Chords & Tabs

 

Lucky Man Chords & Tabs

Bubblegum Ride Chords & Tabs

Version: 1 Type: Tab

Lucky Man Tab

hi this is my second tab from the Swedish Band Bubblegum Ride

                                                      Tabber:
Band:Bubblegum Ride
Song:Lucky Man
Album:La LA LA                                        Markus w
                                                 Wilhelmshaven,Germany
Standart Tuning                                        1.2.06

Intro: Fast and with Distortion

e----------------------------------------------------------------|
h----------------------------------------------------------------|
g-5-5-5-5-5-5-5-5------------------------------------------------|  Guitar 1
D-5-5-5-5-5-5-5-5--6-6-6-6-6-6-6-6-------------------------------|
A-3-3-3-3-3-3-3-3--6-6-6-6-6-6-6-6-------------------------------|
E------------------4-4-4-4-4-4-4-4-------------------------------|

Play this Riff again

Guitar Two Lead Guitar

This notes you must play long listen to the song for timing

e----------------------------------------------------------8-----|
h---5---6----8-----5---1---5---6---8---5--1----5--6--8--5--------|
g----------------------------------------------------------------| Guitar 2
D----------------------------------------------------------------|
A----------------------------------------------------------------|
E----------------------------------------------------------------|


Verse:
           Play this 4
[ Tab from: http://www.guitartabs.cc/tabs/b/bubblegum_ride/lucky_man_tab.html ]
e-------------------------------------------------------------------------|
h-------------------------------------------------------------------------|
g-5-5-5-5-5-5-5-5---------------------5--------------------------4--------|
D-5-5-5-5-5-5-5-5-6-6-6-6-6-6-6-6-----5-play-this-chords16-times-4--------|
A-3-3-3-3-3-3-3-3-6-6-6-6-6-6-6-6-----3--------------------------2--------|
E-----------------4-4-4-4-4-4-4-4-----------------------------------------|


Chorus:

La La LA Im your Lucky MAn (Verse)

e---------------------------------------------------------|
h---------------------------------------------------------|
g---------------------------------------------------------|
D-5-5-5-5-5-5-5-5--10-10-10-10-10-10-10-10----------------|
A-3-3-3-3-3-3-3-3--8--8--8--8--8--8--8--8-----------------|
E---------------------------------------------------------|

The second strophe is the same how the first.


Now here is a very interesting solo.Its very simple, but it sounds good.

e---------------------------------------------------------------------8-----|
h-888--68-6-888-68-6-5-1--888-68-6-888-68-65-1--888-68-6-888-6-8-6-5-------|
g---------------------------------------------------------------------------|
D---------------------------------------------------------------------------|
A---------------------------------------------------------------------------|
E---------------------------------------------------------------------------|

After that you must play the chorus 4 or 5 times.


This was the song Lucky Man from Bubblegum Ride.Bubblegum Ride was a very great band, 
its very hard to find her Songs.Look by Ebay or in shops for rare tracks.In my next tab 
will get any informations about Bubblegum Ride.


Please rate my Tab. For any questions Mail me. Hardrock@yahoo.de