Bto - Takin' Care Of Business Chords & Tabs

 

Takin' Care Of Business Chords & Tabs

Bto Chords & Tabs

Version: 1 Type: Tab 0 ratings
1 star 2 stars 3 stars 4 stars 5 stars
comments

Takin' Care Of Business Tab

                            Takin` Care Of Business                
                                   by digiti              


RHYTHM GUITAR                                                       
E||-----------------------------|----------------------------|
B||-----------------------------|----------------------------|
G||-----------------------------|----------------------------|
D||-----------------------------|------------------------10--|
A||--10----12----10--10--10--8--|--8----10-----8--8--10--8---|
E||--8-----8-----8---8---8---6--|--6----6---x--6--6--6-------|


                                                              
------------------------------|------------------------------|
------------------------------|------------------------------|
------------------------------|------------------------------|
--10----12----10--10--12------|------------------------------|
--8-----8-----8---8---8---10--|--10-----12----10--10--x--10--|
--------------------------8---|--8---8--8-----8---8---x--8---|


                                                          
------------------------------|--------------------------|
------------------------------|--------------------------|
------------------------------|--------------------------|
------------------------------|----------------------10--|
--10--x--12-----10--10-----8--|--8----10----8--8-----8---|
--8---x--8---x--8---8---x--6--|--6----6-----6--6--x------|


                                                              
------------------------------|------------------------------|
------------------------------|------------------------------|
------------------------------|------------------------------|
--10----12----10--10--12------|------------------------------|
--8-----8-----8---8---8---10--|--10-----12----10--10--x--10--|
--------------------------8---|--8---8--8-----8---8---x--8---|


                                                          
------------------------------|--------------------------|
------------------------------|--------------------------|
------------------------------|--------------------------|
------------------------------|----------------------10--|
--10--x--12-----10--10-----8--|--8----10----8--8-----8---|
--8---x--8---x--8---8---x--6--|--6----6-----6--6--x------|


                                                              
------------------------------|------------------------------|
------------------------------|------------------------------|
------------------------------|------------------------------|
--10----12----10--10--12------|------------------------------|
--8-----8-----8---8---8---10--|--10-----12----10--10--x--10--|
--------------------------8---|--8---8--8-----8---8---x--8---|


                                                          
------------------------------|--------------------------|
------------------------------|--------------------------|
------------------------------|--------------------------|
------------------------------|----------------------10--|
--10--x--12-----10--10-----8--|--8----10----8--8-----8---|
--8---x--8---x--8---8---x--6--|--6----6-----6--6--x------|


                                                              
------------------------------|------------------------------|
------------------------------|------------------------------|
------------------------------|------------------------------|
--10----12----10--10--12------|------------------------------|
--8-----8-----8---8---8---10--|--10-----12----10--10--x--10--|
--------------------------8---|--8---8--8-----8---8---x--8---|


                                                           
-----------------------------|----------------------------|
-----------------------------|----------------------------|
-----------------------------|----------------------------|
-----------------------------|------------------------10--|
--10----12----10--10--10--8--|--8----10-----8--8--10--8---|
--8-----8-----8---8---8---6--|--6----6---x--6--6--6-------|


                                                              
------------------------------|------------------------------|
------------------------------|------------------------------|
------------------------------|------------------------------|
--10----12----10--10--12------|------------------------------|
--8-----8-----8---8---8---10--|--10-----12----10--10--x--10--|
--------------------------8---|--8---8--8-----8---8---x--8---|


                                                          
------------------------------|--------------------------|
------------------------------|--------------------------|
------------------------------|--------------------------|
------------------------------|----------------------10--|
--10--x--12-----10--10-----8--|--8----10----8--8-----8---|
--8---x--8---x--8---8---x--6--|--6----6-----6--6--x------|


                                                              
------------------------------|------------------------------|
------------------------------|------------------------------|
------------------------------|------------------------------|
--10----12----10--10--12------|------------------------------|
--8-----8-----8---8---8---10--|--10-----12----10--10--x--10--|
--------------------------8---|--8---8--8-----8---8---x--8---|


                                                          
------------------------------|--------------------------|
------------------------------|--------------------------|
------------------------------|--------------------------|
------------------------------|----------------------10--|
--10--x--12-----10--10-----8--|--8----10----8--8-----8---|
--8---x--8---x--8---8---x--6--|--6----6-----6--6--x------|


                                                                          
------------------------------|----------------8---|------------------6--|
------------------------------|----------------8---|------------------6--|
------------------------------|----------------9---|------------------7--|
--10----12----10--10--12------|----------------10--|------------------8--|
--8-----8-----8---8---8---10--|----------------10--|----------x----x--8--|
--------------------------8---|----------------8---|----------x----x--6--|


                                                    
-------------------------|---------------------8---|
-------------------------|---------------------8---|
-------------------------|---------------------9---|
--------------------8/---|------12--10--x------10--|
----8--10--8-----8--8/---|------10------x------10--|
----6--6---6--x--6--6/---|---------------------8---|


                                                           
------------------------------|------------------------6--|
------------------------------|------------------------6--|
------------------------------|------------------------7--|
------------------------------|------------------------8--|
----10--12--10----10--10--10--|----10--12--10--x----x--8--|
----8---8---8-----8---8---8---|----8---8---8---x----x--6--|


                                                       
-----------------------|--------------------------8---|
------8----------------|--------------------------8---|
------8-----------6/---|--------------------------9---|
------8----------------|------12--10--10--10--10--10--|
------6--8--x--x-------|------8---8---8---8---8---10--|
---------6--x--x-------|--------------------------8---|


                                                              
------------------------------|------------------------------|
------------------------------|------------------------------|
------------------------------|------------------------------|
------------------------------|------------------------------|
--10-----12----10--10--x--10--|--10--x--12-----10--10-----8--|
--8---8--8-----8---8---x--8---|--8---x--8---x--8---8---x--6--|


                                                          
--------------------------|------------------------------|
--------------------------|------------------------------|
--------------------------|------------------------------|
----------------------10--|--10----12----10--10--12------|
--8----10----8--8-----8---|--8-----8-----8---8---8---10--|
--6----6-----6--6--x------|--------------------------8---|


                                                              
------------------------------|------------------------------|
------------------------------|------------------------------|
------------------------------|------------------------------|
------------------------------|------------------------------|
--10-----12----10--10--x--10--|--10--x--12-----10--10-----8--|
--8---8--8-----8---8---x--8---|--8---x--8---x--8---8---x--6--|


                                                          
--------------------------|------------------------------|
--------------------------|------------------------------|
--------------------------|------------------------------|
----------------------10--|--10----12----10--10--12------|
--8----10----8--8-----8---|--8-----8-----8---8---8---10--|
--6----6-----6--6--x------|--------------------------8---|


                                                              
------------------------------|------------------------------|
------------------------------|------------------------------|
------------------------------|------------------------------|
------------------------------|------------------------------|
--10-----12----10--10--x--10--|--10--x--12-----10--10-----8--|
--8---8--8-----8---8---x--8---|--8---x--8---x--8---8---x--6--|


                                                          
--------------------------|------------------------------|
--------------------------|------------------------------|
--------------------------|------------------------------|
----------------------10--|--10----12----10--10--12------|
--8----10----8--8-----8---|--8-----8-----8---8---8---10--|
--6----6-----6--6--x------|--------------------------8---|


                                                             
------------------------------|-----------------------------|
------------------------------|-----------------------------|
------------------------------|-----------------------------|
------------------------------|-----------------------------|
--10-----12----10--10--x--10--|--10----12----10--10--10--8--|
--8---8--8-----8---8---x--8---|--8-----8-----8---8---8---6--|


                                                            
----------------------------|------------------------------|
----------------------------|------------------------------|
----------------------------|------------------------------|
------------------------10--|--10----12----10--10--12------|
--8----10-----8--8--10--8---|--8-----8-----8---8---8---10--|
--6----6---x--6--6--6-------|--------------------------8---|


                                                              
------------------------------|------------------------------|
------------------------------|------------------------------|
------------------------------|------------------------------|
------------------------------|------------------------------|
--10-----12----10--10--x--10--|--10--x--12-----10--10-----8--|
--8---8--8-----8---8---x--8---|--8---x--8---x--8---8---x--6--|


                                                          
--------------------------|------------------------------|
--------------------------|------------------------------|
--------------------------|------------------------------|
----------------------10--|--10----12----10--10--12------|
--8----10----8--8-----8---|--8-----8-----8---8---8---10--|
--6----6-----6--6--x------|--------------------------8---|


                                                              
------------------------------|------------------------------|
------------------------------|------------------------------|
------------------------------|------------------------------|
------------------------------|------------------------------|
--10-----12----10--10--x--10--|--10--x--12-----10--10-----8--|
--8---8--8-----8---8---x--8---|--8---x--8---x--8---8---x--6--|


                                                                               
--------------------------|------------------------------|----------------8---|
--------------------------|------------------------------|----------------8---|
--------------------------|------------------------------|----------------9---|
----------------------10--|--10----12----10--10--12------|----------------10--|
--8----10----8--8-----8---|--8-----8-----8---8---8---10--|----------------10--|
--6----6-----6--6--x------|--------------------------8---|----------------8---|


                                                                          
------------------6--|-------------------------|---------------------8---|
------------------6--|-------------------------|---------------------8---|
------------------7--|-------------------------|---------------------9---|
------------------8--|--------------------8/---|------12--10--x------10--|
----------x----x--8--|----8--10--8-----8--8/---|------10------x------10--|
----------x----x--6--|----6--6---6--x--6--6/---|---------------------8---|


                                                           
------------------------------|------------------------6--|
------------------------------|------------------------6--|
------------------------------|------------------------7--|
------------------------------|------------------------8--|
----10--12--10----10--10--10--|----10--12--10--x----x--8--|
----8---8---8-----8---8---8---|----8---8---8---x----x--6--|


                                                       
-----------------------|--------------------------8---|
------8----------------|--------------------------8---|
------8-----------6/---|--------------------------9---|
------8----------------|------12--10--10--10--10--10--|
------6--8--x--x-------|------8---8---8---8---8---10--|
---------6--x--x-------|--------------------------8---|


                                                              
------------------------------|------------------------------|
------------------------------|------------------------------|
------------------------------|------------------------------|
------------------------------|------------------------------|
--10-----12----10--10--x--10--|--10--x--12-----10--10-----8--|
--8---8--8-----8---8---x--8---|--8---x--8---x--8---8---x--6--|


                                                          
--------------------------|------------------------------|
--------------------------|------------------------------|
--------------------------|------------------------------|
----------------------10--|--10----12----10--10--12------|
--8----10----8--8-----8---|--8-----8-----8---8---8---10--|
--6----6-----6--6--x------|--------------------------8---|


                                                              
------------------------------|------------------------------|
------------------------------|------------------------------|
------------------------------|------------------------------|
------------------------------|------------------------------|
--10-----12----10--10--x--10--|--10--x--12-----10--10-----8--|
--8---8--8-----8---8---x--8---|--8---x--8---x--8---8---x--6--|


                                                          
--------------------------|------------------------------|
--------------------------|------------------------------|
--------------------------|------------------------------|
----------------------10--|--10----12----10--10--12------|
--8----10----8--8-----8---|--8-----8-----8---8---8---10--|
--6----6-----6--6--x------|--------------------------8---|


                                                                     
------------------------------|------------------|------------------|
------------------------------|------------------|------------------|
------------------------------|------------------|------------------|
------------------------------|------------------|------------------|
--10-----12----10--10--x--10--|------------------|------------------|
--8---8--8-----8---8---x--8---|------------------|------------------|


                                                                   
------------------|------------------|--8-------------------------|
------------------|------------------|--8---10--10--10--10--------|
------------------|------------------|--9---10--10--10--10--------|
------------------|------------------|--10--10--10--10--10--------|
------------------|------------------|--10--8---8---8---8---------|
------------------|------------------|--8-------------------------|


                                                                             
-----6--6--6--6--------|--8-------------------------|-----6--6--6--6--------|
--8--6--6--6--6--------|--8---10--10--10--10--------|--8--6--6--6--6--------|
--8--7--7--7--7--------|--9---10--10--10--10--------|--8--7--7--7--7--------|
--8--8--8--8--8--------|--10--10--10--10--10--------|--8--8--8--8--8--------|
--6--8--8--8--8--------|--10--8---8---8---18--------|--6--8--8--8--8--------|
-----6--6--6--6--------|--8-------------------------|-----6--6--6--6--------|


                                                     
--8-------------------------|-----6--6--6--6--------|
--8---10--10--10--10--------|--8--6--6--6--6--------|
--9---10--10--10--10--------|--8--7--7--7--7--------|
--10--10--10--10--10--------|--8--8--8--8--8--------|
--10--8---8---8---8---------|--6--8--8--8--8--------|
--8-------------------------|-----6--6--6--6--------|


                                                     
--8-------------------------|-----6--6--6--6--------|
--8---10--10--10--10--------|--8--6--6--6--6--------|
--9---10--10--10--10--------|--8--7--7--7--7--------|
--10--10--10--10--10--------|--8--8--8--8--8--------|
--10--8---8---8---18--------|--6--8--8--8--8--------|
--8-------------------------|-----6--6--6--6--------|


                                                           
-----------------------------|----------------------------|
-----------------------------|----------------------------|
-----------------------------|----------------------------|
-----------------------------|------------------------10--|
--10----12----10--10--10--8--|--8----10-----8--8--10--8---|
--8-----8-----8---8---8---6--|--6----6---x--6--6--6-------|


                                                              
------------------------------|------------------------------|
------------------------------|------------------------------|
------------------------------|------------------------------|
--10----12----10--10--12------|------------------------------|
--8-----8-----8---8---8---10--|--10-----12----10--10--x--10--|
--------------------------8---|--8---8--8-----8---8---x--8---|


                                                          
------------------------------|--------------------------|
------------------------------|--------------------------|
------------------------------|--------------------------|
------------------------------|----------------------10--|
--10--x--12-----10--10-----8--|--8----10----8--8-----8---|
--8---x--8---x--8---8---x--6--|--6----6-----6--6--x------|


                                                              
------------------------------|------------------------------|
------------------------------|------------------------------|
------------------------------|------------------------------|
--10----12----10--10--12------|------------------------------|
--8-----8-----8---8---8---10--|--10-----12----10--10--x--10--|
--------------------------8---|--8---8--8-----8---8---x--8---|


                                                          
------------------------------|--------------------------|
------------------------------|--------------------------|
------------------------------|--------------------------|
------------------------------|----------------------10--|
--10--x--12-----10--10-----8--|--8----10----8--8-----8---|
--8---x--8---x--8---8---x--6--|--6----6-----6--6--x------|


                                                              
------------------------------|------------------------------|
------------------------------|------------------------------|
------------------------------|------------------------------|
--10----12----10--10--12------|------------------------------|
--8-----8-----8---8---8---10--|--10-----12----10--10--x--10--|
--------------------------8---|--8---8--8-----8---8---x--8---|


                                                          
------------------------------|--------------------------|
------------------------------|--------------------------|
------------------------------|--------------------------|
------------------------------|----------------------10--|
--10--x--12-----10--10-----8--|--8----10----8--8-----8---|
--8---x--8---x--8---8---x--6--|--6----6-----6--6--x------|


                                                              
------------------------------|------------------------------|
------------------------------|------------------------------|
------------------------------|------------------------------|
--10----12----10--10--12------|------------------------------|
--8-----8-----8---8---8---10--|--10-----12----10--10--x--10--|
--------------------------8---|--8---8--8-----8---8---x--8---|


                                                          
------------------------------|--------------------------|
------------------------------|--------------------------|
------------------------------|--------------------------|
------------------------------|----------------------10--|
--10--x--12-----10--10-----8--|--8----10----8--8-----8---|
--8---x--8---x--8---8---x--6--|--6----6-----6--6--x------|


                                                              
------------------------------|------------------------------|
------------------------------|------------------------------|
------------------------------|------------------------------|
--10----12----10--10--12------|------------------------------|
--8-----8-----8---8---8---10--|--10-----12----10--10--x--10--|
--------------------------8---|--8---8--8-----8---8---x--8---|


                                                          
------------------------------|--------------------------|
------------------------------|--------------------------|
------------------------------|--------------------------|
------------------------------|----------------------10--|
--10--x--12-----10--10-----8--|--8----10----8--8-----8---|
--8---x--8---x--8---8---x--6--|--6----6-----6--6--x------|


                                                              
------------------------------|------------------------------|
------------------------------|------------------------------|
------------------------------|------------------------------|
--10----12----10--10--12------|------------------------------|
--8-----8-----8---8---8---10--|--10-----12----10--10--x--10--|
--------------------------8---|--8---8--8-----8---8---x--8---|


                                                                               
------------------------------|--------------------------|----------------8---|
------------------------------|--------------------------|----------------8---|
------------------------------|--------------------------|----------------9---|
------------------------------|----------------------10--|----------------10--|
--10--x--12-----10--10-----8--|--8----10----8--8-----8---|----------------10--|
--8---x--8---x--8---8---x--6--|--6----6-----6--6--x------|----------------8---|


                                                                          
------------------6--|-------------------------|---------------------8---|
------------------6--|-------------------------|---------------------8---|
------------------7--|-------------------------|---------------------9---|
------------------8--|--------------------8/---|------12--10--x------10--|
----------x----x--8--|----8--10--8-----8--8/---|------10------x------10--|
----------x----x--6--|----6--6---6--x--6--6/---|---------------------8---|


                                                           
------------------------------|------------------------6--|
------------------------------|------------------------6--|
------------------------------|------------------------7--|
------------------------------|------------------------8--|
----10--12--10----10--10--10--|----10--12--10--x----x--8--|
----8---8---8-----8---8---8---|----8---8---8---x----x--6--|


                                                                          
-----------------------|--------------------------8---|------------------|
------8----------------|--------------------------8---|------------------|
------8-----------6/---|--------------------------9---|------------------|
------8----------------|------12--10--10--10--10--10--|------------------|
------6--8--x--x-------|------8---8---8---8---8---10--|------------------|
---------6--x--x-------|--------------------------8---|------------------|


                                                                            
------------------|------------------|------------------|------------------|
------------------|------------------|------------------|------------------|
------------------|------------------|------------------|------------------|
------------------|------------------|------------------|------------------|
------------------|------------------|------------------|------------------|
------------------|------------------|------------------|------------------|


                                                                              
------------------|------------------|------------------|----------------8---|
------------------|------------------|------------------|----------------8---|
------------------|------------------|------------------|----------------9---|
------------------|------------------|------------------|----------------10--|
------------------|------------------|------------------|----------------10--|
------------------|------------------|------------------|----------------8---|


                                                                   
--8---------------6--|--6------------------|------------------8---|
--8---------------6--|--6--------------10--|--10--------------8---|
--9---------------7--|--7--------------10--|--10--------------9---|
--10--------------8--|--8--------------10--|--10--------------10--|
--10--------------8--|--8--------------8---|--8---------------10--|
--8---------------6--|--6------------------|------------------8---|


                                                       
--8-------------------||------------------------------|
--8---------------10--||------------------------------|
--9---------------10--||*-----------------------------|
--10--------------10--||*-----------------------------|
--10--------------8---||---10----12----10--10--10--8--|
--8-------------------||---8-----8-----8---8---8---6--|


                                                            
----------------------------|------------------------------|
----------------------------|------------------------------|
----------------------------|------------------------------|
------------------------10--|--10----12----10--10--12------|
--8----10-----8--8--10--8---|--8-----8-----8---8---8---10--|
--6----6---x--6--6--6-------|--------------------------8---|


                                                              
------------------------------|------------------------------|
------------------------------|------------------------------|
------------------------------|------------------------------|
------------------------------|------------------------------|
--10-----12----10--10--x--10--|--10--x--12-----10--10-----8--|
--8---8--8-----8---8---x--8---|--8---x--8---x--8---8---x--6--|

[ Tab from: http://www.guitartabs.cc/tabs/b/bto/takin_care_of_business_tab.html ]
                                                          
--------------------------|------------------------------|
--------------------------|------------------------------|
--------------------------|------------------------------|
----------------------10--|--10----12----10--10--12------|
--8----10----8--8-----8---|--8-----8-----8---8---8---10--|
--6----6-----6--6--x------|--------------------------8---|


                                 
-------------------------------||
-------------------------------||
------------------------------*||
------------------------------*||
--10-----12----10--10--x--10---||
--8---8--8-----8---8---x--8----||












LEAD GUITAR
E||------------------|------------------|------------------|------------------|
B||------------------|------------------|------------------|------------------|
G||------------------|------------------|------------------|------------------|
D||------------------|------------------|------------------|------------------|
A||------------------|------------------|------------------|------------------|
E||------------------|------------------|------------------|------------------|


                                                          
------------------------------|--------------------------|
------------------------------|--------------------------|
------------------------------|--------------------------|
------------------------------|----------------------10--|
--10--x--12-----10--10-----8--|--8----10----8--8-----8---|
--8---x--8---x--8---8---x--6--|--6----6-----6--6--x------|


                                                              
------------------------------|------------------------------|
------------------------------|------------------------------|
------------------------------|------------------------------|
--10----12----10--10--12------|--------------------------10--|
--8-----8-----8---8---8---10--|--10-----12----10--10--x--10--|
--------------------------8---|--8---8--8-----8---8---x--8---|


                                                              
----------12-12-12-12-12/--------|---------------------------|
----------11-11-11-11-11/----8---|---------------------------|
----------12-12-12-12-12/----8---|--6h-7---------------------|
--10--10-------------------------|--------8--6--8~-----------|
---------------------------------|-------------------10/-8-8-|
---------------------------------|---------------------------|


                                                          
-------5-5-5-5-5/---------|------------------------------|
-------4-4-4-4-4/---------|------------------------------|
-------5-5-5-5-5/-----10--|--8h-9------------------------|
--8-------------------10--|--------10--8--10------8--10--|
--------------------------|-------------------10---------|
--------------------------|------------------------------|


                                                        
--------12-12-12-12-12/-------|------------------------|
--------11-11-11-11-11/----8--|------------------------|
--------12-12-12-12-12/----8--|--6b--------------------|
------------------------------|-----8--6--8~-----------|
------------------------------|------------------6h-8--|
--8---------------------------|------------------------|


                                                     
--------5-5-5-5-5---------|-------------------------|
--------4-4-4-4-4-----10--|-------------------------|
--------5-5-5-5-5-----10--|--8h-9-------------------|
--------------------------|--------10--8--10~-------|
--8-----------------------|-------------------------|
--------------------------|-------------------------|


                                                           
-----------------------------|----------------------------|
-----------------------------|----------------------------|
-----------------------------|----------------------------|
-----------------------------|------------------------10--|
--10----12----10--10--10--8--|--8----10-----8--8--10--8---|
--8-----8-----8---8---8---6--|--6----6---x--6--6--6-------|


                                                              
------------------------------|------------------------------|
------------------------------|------------------------------|
------------------------------|------------------------------|
--10----12----10--10--12------|------------------------------|
--8-----8-----8---8---8---10--|--10-----12----10--10--x--10--|
--------------------------8---|--8---8--8-----8---8---x--8---|


                                                          
------------------------------|--------------------------|
------------------------------|--------------------------|
------------------------------|--------------------------|
------------------------------|----------------------10--|
--10--x--12-----10--10-----8--|--8----10----8--8-----8---|
--8---x--8---x--8---8---x--6--|--6----6-----6--6--x------|


                                                              
------------------------------|------------------------------|
------------------------------|------------------------------|
------------------------------|------------------------------|
--10----12----10--10--12------|------------------------------|
--8-----8-----8---8---8---10--|--10-----12----10--10--x--10--|
--------------------------8---|--8---8--8-----8---8---x--8---|


                                                          
------------------------------|--------------------------|
------------------------------|--------------------------|
------------------------------|--------------------------|
------------------------------|----------------------10--|
--10--x--12-----10--10-----8--|--8----10----8--8-----8---|
--8---x--8---x--8---8---x--6--|--6----6-----6--6--x------|


                                                                          
------------------------------|----------------8---|------------------6--|
------------------------------|----------------8---|------------------6--|
------------------------------|----------------9---|------------------7--|
--10----12----10--10--12------|----------------10--|------------------8--|
--8-----8-----8---8---8---10--|----------------10--|----------x----x--8--|
--------------------------8---|----------------8---|----------x----x--6--|


                                                    
-------------------------|---------------------8---|
-------------------------|---------------------8---|
-------------------------|---------------------9---|
--------------------8/---|------12--10--x------10--|
----8--10--8-----8--8/---|------10------x------10--|
----6--6---6--x--6--6/---|---------------------8---|


                                                           
------------------------------|------------------------6--|
------------------------------|------------------------6--|
------------------------------|------------------------7--|
------------------------------|------------------------8--|
----10--12--10----10--10--10--|----10--12--10--x----x--8--|
----8---8---8-----8---8---8---|----8---8---8---x----x--6--|


                                                       
-----------------------|--------------------------8---|
------8----------------|--------------------------8---|
------8-----------6/---|--------------------------9---|
------8----------------|------12--10--10--10--10--10--|
------6--8--x--x-------|------8---8---8---8---8---10--|
---------6--x--x-------|--------------------------8---|


                                                             
------------8--------------|-------12-12-12-12-12--12-------|
------10----8--------------|----0--11-11-11-11-11--11----8--|
------10-------------------|-------12-12-12-12-12--12----8--|
---------------10--10--10--|-----------------------------8--|
---------------------------|--------------------------------|
---------------------------|--------------------------------|


                                                        
-------------------------|--------5-5-5-5-5/-4---------|
-------------------------|--10----4-4-4-4-4/-3--0--10--|
--8h-7-------------------|--10----5-5-5-5-5/-4-----10--|
--------8--6--8--8-------|--10-------------------------|
----------------------8--|--8--------------------------|
-------------------------|-----------------------------|


                                                                  
------------------------------|----------------8----8----8----8--|
------------------------------|-----------8----8----8----8----8--|
--8b--------------------------|-------------10b--10b--10b--10b---|
------10--8--10---10--10--10--|--8h--10--------------------------|
------------------------------|----------------------------------|
------------------------------|----------------------------------|


                                                                   
---------------------------------|--------------------------------|
-------------------------13------|--------13----------13------13~-|
--10h8-----8--10-----12b-----12--|--12b-------12r-12b-----12b-----|
-------10---------9--------------|--------------------------------|
---------------------------------|--------------------------------|
---------------------------------|--------------------------------|


                                                               
----------8-----------12~------|------------------------------|
----------------------------12-|------------------------------|
--12r-8/9-----10/-12-----------|------------------------------|
-------------------------------|------------------------------|
-------------------------------|--10--x--12-----10--10-----8--|
-------------------------------|--8---x--8---x--8---8---x--6--|


                                                          
--------------------------|------------------------------|
--------------------------|------------------------------|
--------------------------|------------------------------|
----------------------10--|--10----12----10--10--12------|
--8----10----8--8-----8---|--8-----8-----8---8---8---10--|
--6----6-----6--6--x------|--------------------------8---|


                                                             
------------------------------|-----------------------------|
------------------------------|-----------------------------|
------------------------------|-----------------------------|
------------------------------|-----------------------------|
--10-----12----10--10--x--10--|--10----12----10--10--10--8--|
--8---8--8-----8---8---x--8---|--8-----8-----8---8---8---6--|


                                                            
----------------------------|------------------------------|
----------------------------|------------------------------|
----------------------------|------------------------------|
------------------------10--|--10----12----10--10--12------|
--8----10-----8--8--10--8---|--8-----8-----8---8---8---10--|
--6----6---x--6--6--6-------|--------------------------8---|


                                                              
------------------------------|------------------------------|
------------------------------|------------------------------|
------------------------------|------------------------------|
------------------------------|------------------------------|
--10-----12----10--10--x--10--|--10--x--12-----10--10-----8--|
--8---8--8-----8---8---x--8---|--8---x--8---x--8---8---x--6--|


                                                          
--------------------------|------------------------------|
--------------------------|------------------------------|
--------------------------|------------------------------|
----------------------10--|--10----12----10--10--12------|
--8----10----8--8-----8---|--8-----8-----8---8---8---10--|
--6----6-----6--6--x------|--------------------------8---|


                                                              
------------------------------|------------------------------|
------------------------------|------------------------------|
------------------------------|------------------------------|
------------------------------|------------------------------|
--10-----12----10--10--x--10--|--10--x--12-----10--10-----8--|
--8---8--8-----8---8---x--8---|--8---x--8---x--8---8---x--6--|


                                                                               
--------------------------|------------------------------|----------------8---|
--------------------------|------------------------------|----------------8---|
--------------------------|------------------------------|----------------9---|
----------------------10--|--10----12----10--10--12------|----------------10--|
--8----10----8--8-----8---|--8-----8-----8---8---8---10--|----------------10--|
--6----6-----6--6--x------|--------------------------8---|----------------8---|


                                                                          
------------------6--|-------------------------|---------------------8---|
------------------6--|-------------------------|---------------------8---|
------------------7--|-------------------------|---------------------9---|
------------------8--|--------------------8/---|------12--10--x------10--|
----------x----x--8--|----8--10--8-----8--8/---|------10------x------10--|
----------x----x--6--|----6--6---6--x--6--6/---|---------------------8---|


                                                           
------------------------------|------------------------6--|
------------------------------|------------------------6--|
------------------------------|------------------------7--|
------------------------------|------------------------8--|
----10--12--10----10--10--10--|----10--12--10--x----x--8--|
----8---8---8-----8---8---8---|----8---8---8---x----x--6--|


                                                       
-----------------------|--------------------------8---|
------8----------------|--------------------------8---|
------8-----------6/---|--------------------------9---|
------8----------------|------12--10--10--10--10--10--|
------6--8--x--x-------|------8---8---8---8---8---10--|
---------6--x--x-------|--------------------------8---|


                                                                
----------------------------------|------------8--8--8---------|
----------8-8-8-8-11--11h-13--11--|-----8------8--8--8--10--8--|
------9-9-9-9-9-9-----------------|--x--8---------------10--8--|
--10------------------------------|--------10------------------|
----------------------------------|----------------------------|
----------------------------------|----------------------------|


                                                      
--------------------------|----------------0--0------|
--------5--7b---7b--------|--5-------------0--0--15b-|
--------5--7b---7b-7h5----|--5--7--5--5--------------|
--5--7-----------------7--|--------------------------|
--------------------------|--------------------------|
--------------------------|--------------------------|


                                                              
--15--15b-15b---15b---15b---|--15------15----------------13--|
------15b-15b---15b---15b---|--15--13--15--13----13------13--|
----------------------------|------------------------15b-----|
----------------------------|--------------------------------|
----------------------------|--------------------------------|
----------------------------|--------------------------------|


                                                              
--13------13--13------13--13--15--|----15b---15b---15b---15b-|
--13------13--13------13--13--15--|----15b---15b---15b---15b-|
------15b---------15b-------------|--------------------------|
----------------------------------|--------------------------|
----------------------------------|--------------------------|
----------------------------------|--------------------------|


                                                                              
--15----------------|------------------|------------------|------------------|
--------------------|------------------|------------------|------------------|
--------------------|------------------|------------------|------------------|
--------------------|------------------|------------------|------------------|
--------------------|------------------|------------------|------------------|
--------------------|------------------|------------------|------------------|


                                                                        
------------------|--8-------------------------|-----6--6--6--6--------|
------------------|--8---10--10--10--10--------|--8--6--6--6--6--------|
------------------|--9---10--10--10--10--------|--8--7--7--7--7--------|
------------------|--10--10--10--10--10--------|--8--8--8--8--8--------|
------------------|--10--8---8---8---8---------|--6--8--8--8--8--------|
------------------|--8-------------------------|-----6--6--6--6--------|


                                                     
--8-------------------------|-----6--6--6--6--------|
--8---10--10--10--10--------|--8--6--6--6--6--------|
--9---10--10--10--10--------|--8--7--7--7--7--------|
--10--10--10--10--10--------|--8--8--8--8--8--------|
--10--8---8---8---18--------|--6--8--8--8--8--------|
--8-------------------------|-----6--6--6--6--------|


                                                     
--8-------------------------|-----6--6--6--6--------|
--8---10--10--10--10--------|--8--6--6--6--6--------|
--9---10--10--10--10--------|--8--7--7--7--7--------|
--10--10--10--10--10--------|--8--8--8--8--8--------|
--10--8---8---8---8---------|--6--8--8--8--8--------|
--8-------------------------|-----6--6--6--6--------|


                                                                         
--8-------------------------|-----6--6--6--6--------|----------------8r-|
--8---10--10--10--10--------|--8--6--6--6--6--------|-------------------|
--9---10--10--10--10--------|--8--7--7--7--7--------|-------------------|
--10--10--10--10--10--------|--8--8--8--8--8--------|-------------------|
--10--8---8---8---18--------|--6--8--8--8--8--------|-------------------|
--8-------------------------|-----6--6--6--6--------|-------------------|


                                                      
----------11----8~---|---------8--8------------------|
---------------------|---------------10h8------------|
---------------------|----8h10------------10--8b-----|
---------------------|---------------------------10--|
---------------------|-------------------------------|
---------------------|-------------------------------|


                                                               
--------8----------------------|------------------------------|
-----------10--10--10b-10--10b-|--10--10b-10--10b-10~-----10r-|
--10b--------------------------|------------------------------|
-------------------------------|------------------------------|
-------------------------------|------------------------------|
-------------------------------|------------------------------|


                                                            
-----------8------------------|-------------------------8--|
--8-----8-----10--8--10-8-----|-------------------------8--|
----9---------------------9-8b|-------10b---8-9---7--9-----|
------------------------------|--10h8----------------------|
------------------------------|----------------------------|
------------------------------|----------------------------|


                                                                               
----8-----------------12--13--|--12------------------------|------------------|
----8-------------11--12------|-------13-------------13----|------------------|
-------10--8/-12--------------|------------12--12~---------|------------------|
------------------------------|----------------------------|------------------|
------------------------------|----------------------------|------------------|
------------------------------|----------------------------|------------------|


                                                                                
------------------|------------------|------------------|------------------15b-|
------------------|------------------|------------------|------------15b---15b-|
------------------|------------------|------------------|----------------------|
------------------|------------------|------------------|----------------------|
------------------|------------------|------------------|----------------------|
------------------|------------------|------------------|----------------------|


                                                                             
----15b---15b-----------|----------15------------|--------------------------|
----15b---15b---15b-----|----------------15--13--|------------------13--13--|
------------------------|------------------------|----------12/-14----------|
------------------------|------------------------|--------------------------|
------------------------|------------------------|--------------------------|
------------------------|------------------------|--------------------------|


                                                                           
--------------------|--------------------------|--------------------------|
--------------------|------------13--13--------|----------13----11--------|
--------14----------|----12/-14----------------|------12------------------|
--------------------|--------------------------|--------------------13----|
--------------------|--------------------------|--------------------------|
--------------------|--------------------------|--------------------------|


                                                  
--------------------------|----------------------|
----13----13--------------|----13~---------15b---|
--------------------------|----------------------|
----------------x--x-x-x--|----------------------|
--------------------------|----------------------|
--------------------------|----------------------|


                                                                
--------------------------------------|----------------15b-----|
--15--15b-15--15b-15--13-15-13----13--|--13b---15b-------------|
-------------------------------14-----|------------------------|
--------------------------------------|------------------------|
--------------------------------------|------------------------|
--------------------------------------|------------------------|


                                                               
--15---15b-15--------------------|----------------------------|
-----------------15r15h13----15b-|------15b---15--15b-15--15b-|
--------------------------x------|----------------------------|
---------------------------------|----------------------------|
---------------------------------|----------------------------|
---------------------------------|----------------------------|


                                                                   
---------------------------------|--------------------------------|
--15--15b-x--13--15--15b-15--15b-|--15b---15b---15r15h13--15--13--|
---------------------------------|--------------------------------|
---------------------------------|--------------------------------|
---------------------------------|--------------------------------|
---------------------------------|--------------------------------|


                                                    
----------------------------|----------------15b---|
----------------13--15--15r-|----13----------------|
----------12/14-------------|----------------------|
----------------------------|----------------------|
----------------------------|----------------------|
----------------------------|----------------------|


                                                               
--15--15b-15--15b-15----------|-------------------8-----------|
--------------------------15--|--15b---15--13/-8-----11--11h8-|
------------------------------|-------------------------------|
------------------------------|-------------------------------|
------------------------------|-------------------------------|
------------------------------|-------------------------------|


                                                     
------8-------------------|-------------------------|
---------11--8------------|--------------------8b---|
--10--------------5--7r---|--7--5--7--7r-5--5-------|
--------------------------|-------------------------|
--------------------------|-------------------------|
--------------------------|-------------------------|


                                                                    
---------------------------|--------------------|------------------|
--8--5---------------------|--------------------|------------------|
--------7--7b-5------5--7--|--------------------|------------------|
-----------------5h7-------|--10----------------|------------------|
---------------------------|--------------------|------------------|
---------------------------|--------------------|------------------|


                                                                              
--------------------|------------------|------------------|------------------|
--------------------|------------------|------------------|------------------|
--------------------|------------------|------------------|------------------|
--10/---------------|------------------|------------------|------------------|
--------------------|------------------|------------------|------------------|
--------------------|------------------|------------------|------------------|


                                                              
------------------|----------------8---|--8---------------6--|
------------------|----------------8---|--8---------------6--|
------------------|----------------9---|--9---------------7--|
------------------|----------------10--|--10--------------8--|
------------------|----------------10--|--10--------------8--|
------------------|----------------8---|--8---------------6--|


                                                                    
--6------------------|------------------8---|--8-------------------|
--6--------------10--|--10--------------8---|--8---------------10--|
--7--------------10--|--10--------------9---|--9---------------10--|
--8--------------10--|--10--------------10--|--10--------------10--|
--8--------------8---|--8---------------10--|--10--------------8---|
--6------------------|------------------8---|--8-------------------|


                                                                        
|------------------------|----------------------|----------------------|
|------------------------|----------------------|----------------------|
|*-----------7b-------7r-|--7--5--7--5----------|------10b---------10b-|
|*--------5--------------|----------------------|----------------------|
|---5h-7-----------------|----------------------|----------------------|
|------------------------|----------------------|----------------------|


                                                      
------------------------|----------------------------|
------------------------|------------------11-11-----|
--8--10--7h-9--5--------|----------10/-12--------12--|
------------------------|----------------------------|
------------------------|----------------------------|
------------------------|----------------------------|


                                                  
----------11b-------------|--------------13--13--|
--11----------13----------|----------------------|
------12------------------|----------------------|
--------------------------|----------------------|
--------------------------|----------------------|
--------------------------|----------------------|


                               
--11h-12---------------------||
----------13-----------------||
--------------12--12--------*||
----------------------------*||
-----------------------------||
-----------------------------||

Comments